  0
SECTION
  2
HEADER
  9
$ACADVER
  1
AC1032
  9
$ACADMAINTVER
 90
      228
  9
$DWGCODEPAGE
  3
ANSI_1252
  9
$REQUIREDVERSIONS
160
                 0
  9
$INSBASE
 10
0.0
 20
0.0
 30
0.0
  9
$EXTMIN
 10
1.000000000000000E+20
 20
1.000000000000000E+20
 30
1.000000000000000E+20
  9
$EXTMAX
 10
-1.000000000000000E+20
 20
-1.000000000000000E+20
 30
-1.000000000000000E+20
  9
$LIMMIN
 10
0.0
 20
0.0
  9
$LIMMAX
 10
12.0
 20
9.0
  9
$ORTHOMODE
 70
     0
  9
$REGENMODE
 70
     1
  9
$FILLMODE
 70
     1
  9
$QTEXTMODE
 70
     0
  9
$MIRRTEXT
 70
     0
  9
$LTSCALE
 40
1.0
  9
$ATTMODE
 70
     1
  9
$TEXTSIZE
 40
0.2
  9
$TRACEWID
 40
0.05
  9
$TEXTSTYLE
  7
Standard
  9
$CLAYER
  8
0
  9
$CELTYPE
  6
ByLayer
  9
$CECOLOR
 62
   256
  9
$CELTSCALE
 40
1.0
  9
$DISPSILH
 70
     0
  9
$DIMSCALE
 40
1.0
  9
$DIMASZ
 40
0.18
  9
$DIMEXO
 40
0.0625
  9
$DIMDLI
 40
0.38
  9
$DIMRND
 40
0.0
  9
$DIMDLE
 40
0.0
  9
$DIMEXE
 40
0.18
  9
$DIMTP
 40
0.0
  9
$DIMTM
 40
0.0
  9
$DIMTXT
 40
0.18
  9
$DIMCEN
 40
0.09
  9
$DIMTSZ
 40
0.0
  9
$DIMTOL
 70
     0
  9
$DIMLIM
 70
     0
  9
$DIMTIH
 70
     1
  9
$DIMTOH
 70
     1
  9
$DIMSE1
 70
     0
  9
$DIMSE2
 70
     0
  9
$DIMTAD
 70
     0
  9
$DIMZIN
 70
     0
  9
$DIMBLK
  1

  9
$DIMASO
 70
     1
  9
$DIMSHO
 70
     1
  9
$DIMPOST
  1

  9
$DIMAPOST
  1

  9
$DIMALT
 70
     0
  9
$DIMALTD
 70
     2
  9
$DIMALTF
 40
25.4
  9
$DIMLFAC
 40
1.0
  9
$DIMTOFL
 70
     0
  9
$DIMTVP
 40
0.0
  9
$DIMTIX
 70
     0
  9
$DIMSOXD
 70
     0
  9
$DIMSAH
 70
     0
  9
$DIMBLK1
  1

  9
$DIMBLK2
  1

  9
$DIMSTYLE
  2
Standard
  9
$DIMCLRD
 70
     0
  9
$DIMCLRE
 70
     0
  9
$DIMCLRT
 70
     0
  9
$DIMTFAC
 40
1.0
  9
$DIMGAP
 40
0.09
  9
$DIMJUST
 70
     0
  9
$DIMSD1
 70
     0
  9
$DIMSD2
 70
     0
  9
$DIMTOLJ
 70
     1
  9
$DIMTZIN
 70
     0
  9
$DIMALTZ
 70
     0
  9
$DIMALTTZ
 70
     0
  9
$DIMUPT
 70
     0
  9
$DIMDEC
 70
     4
  9
$DIMTDEC
 70
     4
  9
$DIMALTU
 70
     2
  9
$DIMALTTD
 70
     2
  9
$DIMTXSTY
  7
Standard
  9
$DIMAUNIT
 70
     0
  9
$DIMADEC
 70
     0
  9
$DIMALTRND
 40
0.0
  9
$DIMAZIN
 70
     0
  9
$DIMDSEP
 70
    46
  9
$DIMATFIT
 70
     3
  9
$DIMFRAC
 70
     0
  9
$DIMLDRBLK
  1

  9
$DIMLUNIT
 70
     2
  9
$DIMLWD
 70
    -2
  9
$DIMLWE
 70
    -2
  9
$DIMTMOVE
 70
     0
  9
$DIMFXL
 40
1.0
  9
$DIMFXLON
 70
     0
  9
$DIMJOGANG
 40
0.7853981633974483
  9
$DIMTFILL
 70
     0
  9
$DIMTFILLCLR
 70
     0
  9
$DIMARCSYM
 70
     0
  9
$DIMLTYPE
  6

  9
$DIMLTEX1
  6

  9
$DIMLTEX2
  6

  9
$DIMTXTDIRECTION
 70
     0
  9
$LUNITS
 70
     2
  9
$LUPREC
 70
     4
  9
$SKETCHINC
 40
0.1
  9
$FILLETRAD
 40
0.0
  9
$AUNITS
 70
     0
  9
$AUPREC
 70
     0
  9
$MENU
  1
.
  9
$ELEVATION
 40
0.0
  9
$PELEVATION
 40
0.0
  9
$THICKNESS
 40
0.0
  9
$LIMCHECK
 70
     0
  9
$CHAMFERA
 40
0.0
  9
$CHAMFERB
 40
0.0
  9
$CHAMFERC
 40
0.0
  9
$CHAMFERD
 40
0.0
  9
$SKPOLY
 70
     0
  9
$TDCREATE
 40
2460433.517824074
  9
$TDUCREATE
 40
2460433.121990741
  9
$TDUPDATE
 40
2460433.517824074
  9
$TDUUPDATE
 40
2460433.121990741
  9
$TDINDWG
 40
0.0000115741
  9
$TDUSRTIMER
 40
0.0000115741
  9
$USRTIMER
 70
     1
  9
$ANGBASE
 50
0.0
  9
$ANGDIR
 70
     0
  9
$PDMODE
 70
     0
  9
$PDSIZE
 40
0.0
  9
$PLINEWID
 40
0.0
  9
$SPLFRAME
 70
     0
  9
$SPLINETYPE
 70
     6
  9
$SPLINESEGS
 70
     8
  9
$HANDSEED
  5
21B
  9
$SURFTAB1
 70
     6
  9
$SURFTAB2
 70
     6
  9
$SURFTYPE
 70
     6
  9
$SURFU
 70
     6
  9
$SURFV
 70
     6
  9
$UCSBASE
  2

  9
$UCSNAME
  2

  9
$UCSORG
 10
0.0
 20
0.0
 30
0.0
  9
$UCSXDIR
 10
1.0
 20
0.0
 30
0.0
  9
$UCSYDIR
 10
0.0
 20
1.0
 30
0.0
  9
$UCSORTHOREF
  2

  9
$UCSORTHOVIEW
 70
     0
  9
$UCSORGTOP
 10
0.0
 20
0.0
 30
0.0
  9
$UCSORGBOTTOM
 10
0.0
 20
0.0
 30
0.0
  9
$UCSORGLEFT
 10
0.0
 20
0.0
 30
0.0
  9
$UCSORGRIGHT
 10
0.0
 20
0.0
 30
0.0
  9
$UCSORGFRONT
 10
0.0
 20
0.0
 30
0.0
  9
$UCSORGBACK
 10
0.0
 20
0.0
 30
0.0
  9
$PUCSBASE
  2

  9
$PUCSNAME
  2

  9
$PUCSORG
 10
0.0
 20
0.0
 30
0.0
  9
$PUCSXDIR
 10
1.0
 20
0.0
 30
0.0
  9
$PUCSYDIR
 10
0.0
 20
1.0
 30
0.0
  9
$PUCSORTHOREF
  2

  9
$PUCSORTHOVIEW
 70
     0
  9
$PUCSORGTOP
 10
0.0
 20
0.0
 30
0.0
  9
$PUCSORGBOTTOM
 10
0.0
 20
0.0
 30
0.0
  9
$PUCSORGLEFT
 10
0.0
 20
0.0
 30
0.0
  9
$PUCSORGRIGHT
 10
0.0
 20
0.0
 30
0.0
  9
$PUCSORGFRONT
 10
0.0
 20
0.0
 30
0.0
  9
$PUCSORGBACK
 10
0.0
 20
0.0
 30
0.0
  9
$USERI1
 70
     0
  9
$USERI2
 70
     0
  9
$USERI3
 70
     0
  9
$USERI4
 70
     0
  9
$USERI5
 70
     0
  9
$USERR1
 40
0.0
  9
$USERR2
 40
0.0
  9
$USERR3
 40
0.0
  9
$USERR4
 40
0.0
  9
$USERR5
 40
0.0
  9
$WORLDVIEW
 70
     1
  9
$SHADEDGE
 70
     3
  9
$SHADEDIF
 70
    70
  9
$TILEMODE
 70
     1
  9
$MAXACTVP
 70
    64
  9
$PINSBASE
 10
0.0
 20
0.0
 30
0.0
  9
$PLIMCHECK
 70
     0
  9
$PEXTMIN
 10
1.000000000000000E+20
 20
1.000000000000000E+20
 30
1.000000000000000E+20
  9
$PEXTMAX
 10
-1.000000000000000E+20
 20
-1.000000000000000E+20
 30
-1.000000000000000E+20
  9
$PLIMMIN
 10
0.0
 20
0.0
  9
$PLIMMAX
 10
12.0
 20
9.0
  9
$UNITMODE
 70
     0
  9
$VISRETAIN
 70
     1
  9
$PLINEGEN
 70
     0
  9
$PSLTSCALE
 70
     1
  9
$TREEDEPTH
 70
  3020
  9
$CMLSTYLE
  2
Standard
  9
$CMLJUST
 70
     0
  9
$CMLSCALE
 40
1.0
  9
$PROXYGRAPHICS
 70
     1
  9
$MEASUREMENT
 70
     0
  9
$CELWEIGHT
370
    -1
  9
$ENDCAPS
280
     0
  9
$JOINSTYLE
280
     0
  9
$LWDISPLAY
290
     1
  9
$INSUNITS
 70
     4
  9
$HYPERLINKBASE
  1

  9
$STYLESHEET
  1

  9
$XEDIT
290
     1
  9
$CEPSNTYPE
380
     0
  9
$PSTYLEMODE
290
     1
  9
$FINGERPRINTGUID
  2
{AE639685-3676-214B-89E8-9C5AA4E03788}
  9
$VERSIONGUID
  2
{898FD775-2611-8340-A638-1568726AEBCC}
  9
$EXTNAMES
290
     1
  9
$PSVPSCALE
 40
0.0
  9
$OLESTARTUP
290
     0
  9
$SORTENTS
280
   127
  9
$INDEXCTL
280
     0
  9
$HIDETEXT
280
     1
  9
$XCLIPFRAME
280
     2
  9
$HALOGAP
280
     0
  9
$OBSCOLOR
 70
   257
  9
$OBSLTYPE
280
     0
  9
$INTERSECTIONDISPLAY
280
     0
  9
$INTERSECTIONCOLOR
 70
   257
  9
$DIMASSOC
280
     2
  9
$PROJECTNAME
  1

  9
$CAMERADISPLAY
290
     0
  9
$LENSLENGTH
 40
50.0
  9
$CAMERAHEIGHT
 40
0.0
  9
$STEPSPERSEC
 40
2.0
  9
$STEPSIZE
 40
6.0
  9
$3DDWFPREC
 40
2.0
  9
$PSOLWIDTH
 40
0.25
  9
$PSOLHEIGHT
 40
4.0
  9
$LOFTANG1
 40
1.570796326794896
  9
$LOFTANG2
 40
1.570796326794896
  9
$LOFTMAG1
 40
0.0
  9
$LOFTMAG2
 40
0.0
  9
$LOFTPARAM
 70
     7
  9
$LOFTNORMALS
280
     1
  9
$LATITUDE
 40
37.795
  9
$LONGITUDE
 40
-122.394
  9
$NORTHDIRECTION
 40
0.0
  9
$TIMEZONE
 70
 -8000
  9
$LIGHTGLYPHDISPLAY
280
     1
  9
$TILEMODELIGHTSYNCH
280
     1
  9
$CMATERIAL
347
11
  9
$SOLIDHIST
280
     0
  9
$SHOWHIST
280
     1
  9
$DWFFRAME
280
     2
  9
$DGNFRAME
280
     0
  9
$REALWORLDSCALE
290
     1
  9
$INTERFERECOLOR
 62
     1
  9
$INTERFEREOBJVS
345
33
  9
$INTERFEREVPVS
346
30
  9
$CSHADOW
280
     0
  9
$SHADOWPLANELOCATION
 40
0.0
  0
ENDSEC
  0
SECTION
  2
CLASSES
  0
CLASS
  1
ACDBDICTIONARYWDFLT
  2
AcDbDictionaryWithDefault
  3
ObjectDBX Classes
 90
        0
 91
        1
280
     0
281
     0
  0
CLASS
  1
MATERIAL
  2
AcDbMaterial
  3
ObjectDBX Classes
 90
     1153
 91
        3
280
     0
281
     0
  0
CLASS
  1
VISUALSTYLE
  2
AcDbVisualStyle
  3
ObjectDBX Classes
 90
     4095
 91
       24
280
     0
281
     0
  0
CLASS
  1
SCALE
  2
AcDbScale
  3
ObjectDBX Classes
 90
     1153
 91
       17
280
     0
281
     0
  0
CLASS
  1
TABLESTYLE
  2
AcDbTableStyle
  3
ObjectDBX Classes
 90
     4095
 91
        1
280
     0
281
     0
  0
CLASS
  1
MLEADERSTYLE
  2
AcDbMLeaderStyle
  3
ACDB_MLEADERSTYLE_CLASS
 90
     4095
 91
        1
280
     0
281
     0
  0
CLASS
  1
ACDBSECTIONVIEWSTYLE
  2
AcDbSectionViewStyle
  3
ObjectDBX Classes
 90
     1025
 91
        1
280
     0
281
     0
  0
CLASS
  1
ACDBDETAILVIEWSTYLE
  2
AcDbDetailViewStyle
  3
ObjectDBX Classes
 90
     1025
 91
        1
280
     0
281
     0
  0
CLASS
  1
DICTIONARYVAR
  2
AcDbDictionaryVar
  3
ObjectDBX Classes
 90
        0
 91
        5
280
     0
281
     0
  0
CLASS
  1
CELLSTYLEMAP
  2
AcDbCellStyleMap
  3
ObjectDBX Classes
 90
     1152
 91
        1
280
     0
281
     0
  0
ENDSEC
  0
SECTION
  2
TABLES
  0
TABLE
  2
VPORT
  5
8
330
0
100
AcDbSymbolTable
 70
     1
  0
VPORT
  5
57
330
8
100
AcDbSymbolTableRecord
100
AcDbViewportTableRecord
  2
*Active
 70
     0
 10
0.0
 20
0.0
 11
1.0
 21
1.0
 12
0.0
 22
0.0
 13
0.0
 23
0.0
 14
1.0
 24
1.0
 15
0.0
 25
0.0
 16
0.0
 26
0.0
 36
1.0
 17
594.430555406948
 27
420.3347221171385
 37
0.0
 40
857.4828331189626
 41
1.41418380193034
 42
50.0
 43
0.0
 44
0.0
 50
0.0
 51
0.0
 71
     0
 72
   100
 73
     1
 74
     1
 75
     0
 76
     0
 77
     0
 78
     0
281
     0
 65
     1
110
0.0
120
0.0
130
0.0
111
1.0
121
0.0
131
0.0
112
0.0
122
1.0
132
0.0
 79
     0
146
0.0
 60
     3
 61
     5
292
     1
282
     1
141
0.0
142
0.0
 63
   250
421
  3355443
  0
ENDTAB
  0
TABLE
  2
LTYPE
  5
5
330
0
100
AcDbSymbolTable
 70
     1
  0
LTYPE
  5
5B
330
5
100
AcDbSymbolTableRecord
100
AcDbLinetypeTableRecord
  2
ByBlock
 70
     0
  3

 72
    65
 73
     0
 40
0.0
  0
LTYPE
  5
5C
330
5
100
AcDbSymbolTableRecord
100
AcDbLinetypeTableRecord
  2
ByLayer
 70
     0
  3

 72
    65
 73
     0
 40
0.0
  0
LTYPE
  5
5D
330
5
100
AcDbSymbolTableRecord
100
AcDbLinetypeTableRecord
  2
Continuous
 70
     0
  3
Solid line
 72
    65
 73
     0
 40
0.0
  0
ENDTAB
  0
TABLE
  2
LAYER
  5
2
330
0
100
AcDbSymbolTable
 70
     1
  0
LAYER
  5
54
330
2
100
AcDbSymbolTableRecord
100
AcDbLayerTableRecord
  2
0
 70
     0
 62
     7
  6
Continuous
370
     0
390
F
347
21
348
0
  0
ENDTAB
  0
TABLE
  2
STYLE
  5
3
330
0
100
AcDbSymbolTable
 70
     2
  0
STYLE
  5
55
330
3
100
AcDbSymbolTableRecord
100
AcDbTextStyleTableRecord
  2
Standard
 70
     0
 40
0.0
 41
1.0
 50
0.0
 71
     0
 42
0.2
  3
txt
  4

  0
STYLE
  5
5A
330
3
100
AcDbSymbolTableRecord
100
AcDbTextStyleTableRecord
  2
Annotative
 70
     0
 40
0.0
 41
1.0
 50
0.0
 71
     0
 42
0.2
  3
txt
  4

1001
AcadAnnotative
1000
AnnotativeData
1002
{
1070
     1
1070
     1
1002
}
  0
ENDTAB
  0
TABLE
  2
VIEW
  5
6
330
0
100
AcDbSymbolTable
 70
     0
  0
ENDTAB
  0
TABLE
  2
UCS
  5
7
330
0
100
AcDbSymbolTable
 70
     0
  0
ENDTAB
  0
TABLE
  2
APPID
  5
9
330
0
100
AcDbSymbolTable
 70
     2
  0
APPID
  5
56
330
9
100
AcDbSymbolTableRecord
100
AcDbRegAppTableRecord
  2
ACAD
 70
     0
  0
APPID
  5
5E
330
9
100
AcDbSymbolTableRecord
100
AcDbRegAppTableRecord
  2
AcadAnnotative
 70
     0
  0
ENDTAB
  0
TABLE
  2
DIMSTYLE
  5
A
330
0
100
AcDbSymbolTable
 70
     2
100
AcDbDimStyleTable
 71
     0
  0
DIMSTYLE
105
58
330
A
100
AcDbSymbolTableRecord
100
AcDbDimStyleTableRecord
  2
Standard
 70
     0
340
55
  0
DIMSTYLE
105
59
330
A
100
AcDbSymbolTableRecord
100
AcDbDimStyleTableRecord
  2
Annotative
 70
     0
340
55
1001
AcadAnnotative
1000
AnnotativeData
1002
{
1070
     1
1070
     1
1002
}
  0
ENDTAB
  0
TABLE
  2
BLOCK_RECORD
  5
1
330
0
100
AcDbSymbolTable
 70
     6
  0
BLOCK_RECORD
  5
70
330
1
100
AcDbSymbolTableRecord
100
AcDbBlockTableRecord
  2
*Model_Space
340
73
 70
     0
280
     1
281
     0
  0
BLOCK_RECORD
  5
6C
330
1
100
AcDbSymbolTableRecord
100
AcDbBlockTableRecord
  2
*Paper_Space
340
6F
 70
     0
280
     1
281
     0
  0
BLOCK_RECORD
  5
74
330
1
100
AcDbSymbolTableRecord
100
AcDbBlockTableRecord
  2
*Paper_Space0
340
77
 70
     0
280
     1
281
     0
  0
BLOCK_RECORD
  5
78
330
1
100
AcDbSymbolTableRecord
100
AcDbBlockTableRecord
  2
Block_0
340
0
102
{BLKREFS
331
79
102
}
 70
     0
280
     1
281
     0
  0
BLOCK_RECORD
  5
1D8
330
1
100
AcDbSymbolTableRecord
100
AcDbBlockTableRecord
  2
Block_1
340
0
102
{BLKREFS
331
1D9
102
}
 70
     0
280
     1
281
     0
  0
BLOCK_RECORD
  5
1DF
330
1
100
AcDbSymbolTableRecord
100
AcDbBlockTableRecord
  2
Block_2
340
0
102
{BLKREFS
331
1E0
102
}
 70
     0
280
     1
281
     0
  0
BLOCK_RECORD
  5
1E6
330
1
100
AcDbSymbolTableRecord
100
AcDbBlockTableRecord
  2
Block_3
340
0
102
{BLKREFS
331
1E7
102
}
 70
     0
280
     1
281
     0
  0
BLOCK_RECORD
  5
1ED
330
1
100
AcDbSymbolTableRecord
100
AcDbBlockTableRecord
  2
Block_4
340
0
102
{BLKREFS
331
1EE
102
}
 70
     0
280
     1
281
     0
  0
ENDTAB
  0
ENDSEC
  0
SECTION
  2
BLOCKS
  0
BLOCK
  5
71
330
70
100
AcDbEntity
  8
0
100
AcDbBlockBegin
  2
*Model_Space
 70
     0
 10
0.0
 20
0.0
 30
0.0
  3
*Model_Space
  1

  0
ENDBLK
  5
72
330
70
100
AcDbEntity
  8
0
100
AcDbBlockEnd
  0
BLOCK
  5
6D
330
6C
100
AcDbEntity
 67
     1
  8
0
100
AcDbBlockBegin
  2
*Paper_Space
 70
     0
 10
0.0
 20
0.0
 30
0.0
  3
*Paper_Space
  1

  0
ENDBLK
  5
6E
330
6C
100
AcDbEntity
 67
     1
  8
0
100
AcDbBlockEnd
  0
BLOCK
  5
75
330
74
100
AcDbEntity
 67
     1
  8
0
100
AcDbBlockBegin
  2
*Paper_Space0
 70
     0
 10
0.0
 20
0.0
 30
0.0
  3
*Paper_Space0
  1

  0
ENDBLK
  5
76
330
74
100
AcDbEntity
 67
     1
  8
0
100
AcDbBlockEnd
  0
BLOCK
  5
7A
330
78
100
AcDbEntity
  8
0
100
AcDbBlockBegin
  2
Block_0
 70
     0
 10
0.0
 20
0.0
 30
0.0
  3
Block_0
  1

  0
LWPOLYLINE
  5
7C
330
78
100
AcDbEntity
  8
0
100
AcDbPolyline
 90
        3
 70
     0
 43
0.0
 10
932.0106388729001
 20
410.5063383983506
 10
909.7856388784563
 20
399.5843091177708
 10
927.2692400839398
 20
417.1526596721875
  0
HATCH
  5
7D
330
78
100
AcDbEntity
  8
0
 62
    18
420
        0
440
 33554687
100
AcDbHatch
 10
0.0
 20
0.0
 30
0.0
210
0.0
220
0.0
230
1.0
  2
SOLID
 70
     1
 71
     1
 91
        1
 92
        3
 72
     0
 73
     1
 93
        3
 10
932.0106388729001
 20
410.5063383983506
 10
909.7856388784563
 20
399.5843091177708
 10
927.2692400839398
 20
417.1526596721875
 97
        0
 75
     2
 76
     1
 98
        1
 10
0.0
 20
0.0
450
        0
451
        0
460
0.0
461
0.0
452
        0
462
0.0
453
        0
470

  0
LWPOLYLINE
  5
7E
330
78
100
AcDbEntity
  8
0
 62
    18
420
        0
370
    25
100
AcDbPolyline
 90
        3
 70
     0
 43
0.0
 10
929.6399825421145
 20
413.8506648406568
 10
1018.158954959221
 20
477.2659585395376
 10
1040.680233165396
 20
474.7683073764242
  0
LWPOLYLINE
  5
7F
330
78
100
AcDbEntity
  8
0
 62
    18
420
        0
370
    25
100
AcDbPolyline
 90
        6
 70
     0
 43
0.0
 10
425.8309843906135
 20
485.5633418246802
 10
425.8309843906135
 20
475.3609929909687
 10
427.9052763822824
 20
473.3289895463832
 10
431.9692832714574
 20
473.3289895463832
 10
434.001286716043
 20
475.3609929909687
 10
434.001286716043
 20
485.5633418246802
  0
LWPOLYLINE
  5
80
330
78
100
AcDbEntity
  8
0
 62
    18
420
        0
370
    25
100
AcDbPolyline
 90
        4
 70
     0
 43
0.0
 10
438.0653366689144
 20
473.3289895463832
 10
438.0653366689144
 20
485.5632987609876
 10
446.1933073835679
 20
473.3289895463832
 10
446.1933073835679
 20
485.5632987609876
  0
LWPOLYLINE
  5
81
330
78
100
AcDbEntity
  8
0
 62
    18
420
        0
370
    25
100
AcDbPolyline
 90
        6
 70
     0
 43
0.0
 10
450.2996458835188
 20
473.3289895463832
 10
456.3956131535867
 20
473.3289895463832
 10
458.4276165981761
 20
475.3609499272761
 10
458.4276165981761
 20
483.4889637056261
 10
456.3956131535867
 20
485.5632987609876
 10
450.2996458835188
 20
485.5632987609876
  0
LINE
  5
82
330
78
100
AcDbEntity
  8
0
 62
    18
420
        0
370
    25
100
AcDbLine
 10
452.3316493281082
 20
485.5633418246802
 30
0.0
 11
452.3316493281082
 21
473.3289895463832
 31
0.0
  0
LWPOLYLINE
  5
83
330
78
100
AcDbEntity
  8
0
 62
    18
420
        0
370
    25
100
AcDbPolyline
 90
        4
 70
     0
 43
0.0
 10
470.6619688764771
 20
473.3289895463832
 10
462.4916234873511
 20
473.3289895463832
 10
462.4916234873511
 20
485.5632987609876
 10
470.6619688764771
 20
485.5632987609876
  0
LINE
  5
84
330
78
100
AcDbEntity
  8
0
 62
    18
420
        0
370
    25
100
AcDbLine
 10
462.4916665510437
 20
479.4249998801437
 30
0.0
 11
466.5556303765261
 21
479.4249998801437
 31
0.0
  0
LWPOLYLINE
  5
85
330
78
100
AcDbEntity
  8
0
 62
    18
420
        0
370
    25
100
AcDbPolyline
 90
        7
 70
     0
 43
0.0
 10
474.725975765652
 20
473.3289895463832
 10
474.725975765652
 20
485.5632987609876
 10
480.8219430357199
 20
485.5632987609876
 10
482.8539464803055
 20
483.4889637056261
 10
482.8539464803055
 20
481.4569602610367
 10
480.8219430357199
 20
479.4249568164511
 10
474.725975765652
 20
479.4249568164511
  0
LINE
  5
86
330
78
100
AcDbEntity
  8
0
 62
    18
420
        0
370
    25
100
AcDbLine
 10
476.7579792102376
 20
479.4249998801437
 30
0.0
 11
482.8539464803055
 21
473.3289895463832
 31
0.0
  0
LWPOLYLINE
  5
87
330
78
100
AcDbEntity
  8
0
 62
    18
420
        0
370
    25
100
AcDbPolyline
 90
        5
 70
     0
 43
0.0
 10
486.9179964331769
 20
473.3289895463832
 10
486.9179964331769
 20
485.5632987609876
 10
491.0242918694314
 20
477.3929533718617
 10
495.0882987586064
 20
485.5632987609876
 10
495.0882987586064
 20
473.3289895463832
  0
LWPOLYLINE
  5
88
330
78
100
AcDbEntity
  8
0
 62
    18
420
        0
370
    25
100
AcDbPolyline
 90
        4
 70
     1
 43
0.0
 10
499.1523056477814
 20
473.3289464826867
 10
507.2803194261313
 20
473.3289464826867
 10
507.2803194261313
 20
485.5632987609876
 10
499.1523056477814
 20
485.5632987609876
  0
LWPOLYLINE
  5
89
330
78
100
AcDbEntity
  8
0
 62
    18
420
        0
370
    25
100
AcDbPolyline
 90
        6
 70
     0
 43
0.0
 10
511.3866579260822
 20
485.5633418246802
 10
511.3866579260822
 20
475.3609929909687
 10
513.4186183069751
 20
473.3289895463832
 10
517.4826251961502
 20
473.3289895463832
 10
519.5146286407395
 20
475.3609929909687
 10
519.5146286407395
 20
485.5633418246802
  0
LWPOLYLINE
  5
8A
330
78
100
AcDbEntity
  8
0
 62
    18
420
        0
370
    25
100
AcDbPolyline
 90
        4
 70
     0
 43
0.0
 10
523.5786355299145
 20
473.3289895463832
 10
523.5786355299145
 20
485.5632987609876
 10
531.748937855344
 20
473.3289895463832
 10
531.748937855344
 20
485.5632987609876
  0
LINE
  5
8B
330
78
100
AcDbEntity
  8
0
 62
    18
420
        0
370
    25
100
AcDbLine
 10
539.8769946973866
 20
473.3289895463832
 30
0.0
 11
539.8769946973866
 21
485.5632987609876
 31
0.0
  0
LINE
  5
8C
330
78
100
AcDbEntity
  8
0
 62
    18
420
        0
370
    25
100
AcDbLine
 10
535.8129878082116
 20
485.5633418246802
 30
0.0
 11
543.9409585228689
 21
485.5633418246802
 31
0.0
  0
LWPOLYLINE
  5
8D
330
78
100
AcDbEntity
  8
0
 62
    18
420
        0
370
    25
100
AcDbPolyline
 90
        8
 70
     0
 43
0.0
 10
568.3673314686947
 20
475.3609929909687
 10
566.3353280241053
 20
473.3289895463832
 10
562.2713211349304
 20
473.3289895463832
 10
560.2393176903448
 20
475.3609929909687
 10
560.2393176903448
 20
483.4889637056261
 10
562.2713211349304
 20
485.5632987609876
 10
566.3353280241053
 20
485.5632987609876
 10
568.3673314686947
 20
483.4889637056261
  0
LWPOLYLINE
  5
8E
330
78
100
AcDbEntity
  8
0
 62
    18
420
        0
370
    25
100
AcDbPolyline
 90
        6
 70
     0
 43
0.0
 10
572.4736699686457
 20
485.5633418246802
 10
572.4736699686457
 20
475.3609929909687
 10
574.5056303495386
 20
473.3289895463832
 10
578.5696372387136
 20
473.3289895463832
 10
580.6016406832991
 20
475.3609929909687
 10
580.6016406832991
 20
485.5633418246802
  0
LINE
  5
8F
330
78
100
AcDbEntity
  8
0
 62
    18
420
        0
370
    25
100
AcDbLine
 10
588.7296544616491
 20
473.3289895463832
 30
0.0
 11
588.7296544616491
 21
485.5632987609876
 31
0.0
  0
LINE
  5
90
330
78
100
AcDbEntity
  8
0
 62
    18
420
        0
370
    25
100
AcDbLine
 10
584.6656475724741
 20
485.5633418246802
 30
0.0
 11
592.7936182871315
 21
485.5633418246802
 31
0.0
  0
LWPOLYLINE
  5
91
330
78
100
AcDbEntity
  8
0
 62
    18
420
        0
370
    25
100
AcDbPolyline
 90
        4
 70
     1
 43
0.0
 10
596.8999567870821
 20
473.3289464826867
 10
605.027970565432
 20
473.3289464826867
 10
605.027970565432
 20
485.5632987609876
 10
596.8999567870821
 20
485.5632987609876
  0
LWPOLYLINE
  5
92
330
78
100
AcDbEntity
  8
0
 62
    18
420
        0
370
    25
100
AcDbPolyline
 90
        6
 70
     0
 43
0.0
 10
609.091977454607
 20
485.5633418246802
 10
609.091977454607
 20
475.3609929909687
 10
611.1239378355003
 20
473.3289895463832
 10
615.2302763354509
 20
473.3289895463832
 10
617.2622797800372
 20
475.3609929909687
 10
617.2622797800372
 20
485.5633418246802
  0
LINE
  5
93
330
78
100
AcDbEntity
  8
0
 62
    18
420
        0
370
    25
100
AcDbLine
 10
625.3903366220831
 20
473.3289895463832
 30
0.0
 11
625.3903366220831
 21
485.5632987609876
 31
0.0
  0
LINE
  5
94
330
78
100
AcDbEntity
  8
0
 62
    18
420
        0
370
    25
100
AcDbLine
 10
621.3263297329082
 20
485.5633418246802
 30
0.0
 11
629.4543004475619
 21
485.5633418246802
 31
0.0
  0
LWPOLYLINE
  5
95
330
78
100
AcDbEntity
  8
0
100
AcDbPolyline
 90
        3
 70
     0
 43
0.0
 10
310.7689938933906
 20
410.971986116875
 10
288.7556519528219
 20
399.5843091177708
 10
305.900643335797
 20
417.4913125583875
  0
HATCH
  5
96
330
78
100
AcDbEntity
  8
0
 62
    18
420
        0
440
 33554687
100
AcDbHatch
 10
0.0
 20
0.0
 30
0.0
210
0.0
220
0.0
230
1.0
  2
SOLID
 70
     1
 71
     1
 91
        1
 92
        3
 72
     0
 73
     1
 93
        3
 10
310.7689938933906
 20
410.971986116875
 10
288.7556519528219
 20
399.5843091177708
 10
305.900643335797
 20
417.4913125583875
 97
        0
 75
     2
 76
     1
 98
        1
 10
0.0
 20
0.0
450
        0
451
        0
460
0.0
461
0.0
452
        0
462
0.0
453
        0
470

  0
LWPOLYLINE
  5
97
330
78
100
AcDbEntity
  8
0
 62
    18
420
        0
370
    25
100
AcDbPolyline
 90
        3
 70
     0
 43
0.0
 10
308.3136528092063
 20
414.2316493376332
 10
392.3029706186136
 20
476.9273056533376
 10
419.7349740568491
 20
477.1389637072136
  0
LINE
  5
98
330
78
100
AcDbEntity
  8
0
 62
    18
420
        0
370
    25
100
AcDbLine
 10
274.4893177617813
 20
218.3976511091376
 30
0.0
 11
274.4893177617813
 21
164.1686506920579
 31
0.0
  0
LINE
  5
99
330
78
100
AcDbEntity
  8
0
 62
    18
420
        0
370
    25
100
AcDbLine
 10
909.7856388784563
 20
218.3976511091376
 30
0.0
 11
909.7856388784563
 21
164.1686506920579
 31
0.0
  0
LINE
  5
9A
330
78
100
AcDbEntity
  8
0
 62
    18
420
        0
370
    25
100
AcDbLine
 10
298.9156691757594
 20
168.2326575812328
 30
0.0
 11
885.3169343218585
 21
168.2326575812328
 31
0.0
  0
LWPOLYLINE
  5
9B
330
78
100
AcDbEntity
  8
0
100
AcDbPolyline
 90
        3
 70
     0
 43
0.0
 10
298.9156691757594
 20
172.2966644704078
 10
274.4893177617813
 20
168.2326575812328
 10
298.9156691757594
 20
164.1686614579812
  0
HATCH
  5
9C
330
78
100
AcDbEntity
  8
0
 62
    18
420
        0
440
 33554687
100
AcDbHatch
 10
0.0
 20
0.0
 30
0.0
210
0.0
220
0.0
230
1.0
  2
SOLID
 70
     1
 71
     1
 91
        1
 92
        3
 72
     0
 73
     1
 93
        3
 10
298.9156691757594
 20
172.2966644704078
 10
274.4893177617813
 20
168.2326575812328
 10
298.9156691757594
 20
164.1686614579812
 97
        0
 75
     2
 76
     1
 98
        1
 10
0.0
 20
0.0
450
        0
451
        0
460
0.0
461
0.0
452
        0
462
0.0
453
        0
470

  0
LWPOLYLINE
  5
9D
330
78
100
AcDbEntity
  8
0
100
AcDbPolyline
 90
        3
 70
     0
 43
0.0
 10
885.3170204492437
 20
164.1686614579812
 10
909.7856388784563
 20
168.2326575812328
 10
885.3170204492437
 20
172.2966537044844
  0
HATCH
  5
9E
330
78
100
AcDbEntity
  8
0
 62
    18
420
        0
440
 33554687
100
AcDbHatch
 10
0.0
 20
0.0
 30
0.0
210
0.0
220
0.0
230
1.0
  2
SOLID
 70
     1
 71
     1
 91
        1
 92
        3
 72
     0
 73
     1
 93
        3
 10
885.3170204492437
 20
164.1686614579812
 10
909.7856388784563
 20
168.2326575812328
 10
885.3170204492437
 20
172.2966537044844
 97
        0
 75
     2
 76
     1
 98
        1
 10
0.0
 20
0.0
450
        0
451
        0
460
0.0
461
0.0
452
        0
462
0.0
453
        0
470

  0
LWPOLYLINE
  5
9F
330
78
100
AcDbEntity
  8
0
 62
    18
420
        0
370
    25
100
AcDbPolyline
 90
        3
 70
     0
 43
0.0
 10
574.2939722956626
 20
188.6796545616626
 10
583.8189292295887
 20
188.6796545616626
 10
576.7069602372242
 20
174.4556519813969
  0
LWPOLYLINE
  5
A0
330
78
100
AcDbEntity
  8
0
 62
    18
420
        0
370
    25
100
AcDbPolyline
 90
       13
 70
     0
 43
0.0
 10
590.9309843493385
 20
174.4556627473203
 10
595.6722970109133
 20
174.4556627473203
 10
598.0852849524752
 20
176.8263190781079
 10
598.0852849524752
 20
179.1969861748188
 10
595.6722970109133
 20
181.5676425056063
 10
590.9309843493385
 20
181.5676425056063
 10
588.5602849548564
 20
183.9383203682407
 10
588.5602849548564
 20
186.3089766990282
 10
590.9309843493385
 20
188.6796545616626
 10
595.6722970109133
 20
188.6796545616626
 10
598.0852849524752
 20
186.3089766990282
 10
598.0852849524752
 20
183.9383203682407
 10
595.6722970109133
 20
181.5676425056063
  0
LWPOLYLINE
  5
A1
330
78
100
AcDbEntity
  8
0
 62
    18
420
        0
370
    25
100
AcDbPolyline
 90
        4
 70
     0
 43
0.0
 10
590.9309843493385
 20
181.5676640374531
 10
588.5602849548564
 20
179.1969969407422
 10
588.5602849548564
 20
176.8263298440313
 10
590.9309843493385
 20
174.4556627473203
  0
LWPOLYLINE
  5
A2
330
78
100
AcDbEntity
  8
0
 62
    18
420
        0
370
    25
100
AcDbPolyline
 90
        8
 70
     1
 43
0.0
 10
605.1973400722249
 20
174.4556627473203
 10
602.8266406777433
 20
176.8263190781079
 10
602.8266406777433
 20
186.3089766990282
 10
605.1973400722249
 20
188.6796545616626
 10
607.5679964030144
 20
188.6796545616626
 10
609.9386527338
 20
186.3089766990282
 10
609.9386527338
 20
176.8263190781079
 10
607.5679964030144
 20
174.4556627473203
  0
LWPOLYLINE
  5
A3
330
78
100
AcDbEntity
  8
0
 62
    18
420
        0
370
    25
100
AcDbPolyline
 90
        3
 70
     0
 43
0.0
 10
197.5273272550344
 20
172.5083332902062
 10
227.4993134671595
 20
172.5083332902062
 10
258.1909801261533
 20
202.5226511131063
  0
LWPOLYLINE
  5
A4
330
78
100
AcDbEntity
  8
0
 62
    18
420
        0
370
    25
100
AcDbPolyline
 90
        7
 70
     0
 43
0.0
 10
197.5273272550344
 20
178.7313276903703
 10
197.5273272550344
 20
192.9976511154875
 10
204.6816493900188
 20
192.9976511154875
 10
207.0523057208064
 20
190.6269732528532
 10
207.0523057208064
 20
188.2139853112907
 10
204.6816493900188
 20
185.8433074486563
 10
197.5273272550344
 20
185.8433074486563
  0
LINE
  5
A5
330
78
100
AcDbEntity
  8
0
 62
    18
420
        0
370
    25
100
AcDbLine
 10
199.9403367284437
 20
185.8433289805031
 30
0.0
 11
207.0523272526532
 21
178.7313276903703
 31
0.0
  0
LWPOLYLINE
  5
A6
330
78
100
AcDbEntity
  8
0
100
AcDbPolyline
 90
        3
 70
     0
 43
0.0
 10
261.0273272391594
 20
199.6016623103969
 10
275.6323143164001
 20
219.6253108853063
 10
255.3546545449938
 20
205.4436614476625
  0
HATCH
  5
A7
330
78
100
AcDbEntity
  8
0
 62
    18
420
        0
440
 33554687
100
AcDbHatch
 10
0.0
 20
0.0
 30
0.0
210
0.0
220
0.0
230
1.0
  2
SOLID
 70
     1
 71
     1
 91
        1
 92
        3
 72
     0
 73
     1
 93
        3
 10
261.0273272391594
 20
199.6016623103969
 10
275.6323143164001
 20
219.6253108853063
 10
255.3546545449938
 20
205.4436614476625
 97
        0
 75
     2
 76
     1
 98
        1
 10
0.0
 20
0.0
450
        0
451
        0
460
0.0
461
0.0
452
        0
462
0.0
453
        0
470

  0
LINE
  5
A8
330
78
100
AcDbEntity
  8
0
 62
    18
420
        0
370
    25
100
AcDbLine
 10
909.7856388784563
 20
218.3976511091376
 30
0.0
 11
985.4352848556377
 21
218.3976511091376
 31
0.0
  0
LINE
  5
A9
330
78
100
AcDbEntity
  8
0
 62
    18
420
        0
370
    25
100
AcDbLine
 10
909.7856388784563
 20
580.8132987371751
 30
0.0
 11
985.4352848556377
 21
580.8132987371751
 31
0.0
  0
LINE
  5
AA
330
78
100
AcDbEntity
  8
0
 62
    18
420
        0
370
    25
100
AcDbLine
 10
981.3712779664628
 20
242.8240025231156
 30
0.0
 11
981.3712779664628
 21
386.2916235064009
 31
0.0
  0
LINE
  5
AB
330
78
100
AcDbEntity
  8
0
 62
    18
420
        0
370
    25
100
AcDbLine
 10
981.3712779664628
 20
556.3869688550457
 30
0.0
 11
981.3712779664628
 21
412.9192832762196
 31
0.0
  0
LWPOLYLINE
  5
AC
330
78
100
AcDbEntity
  8
0
100
AcDbPolyline
 90
        3
 70
     0
 43
0.0
 10
977.3072710772877
 20
242.8240025231156
 10
981.3711918390776
 20
218.3976511091376
 10
985.4351987282525
 20
242.8240025231156
  0
HATCH
  5
AD
330
78
100
AcDbEntity
  8
0
 62
    18
420
        0
440
 33554687
100
AcDbHatch
 10
0.0
 20
0.0
 30
0.0
210
0.0
220
0.0
230
1.0
  2
SOLID
 70
     1
 71
     1
 91
        1
 92
        3
 72
     0
 73
     1
 93
        3
 10
977.3072710772877
 20
242.8240025231156
 10
981.3711918390776
 20
218.3976511091376
 10
985.4351987282525
 20
242.8240025231156
 97
        0
 75
     2
 76
     1
 98
        1
 10
0.0
 20
0.0
450
        0
451
        0
460
0.0
461
0.0
452
        0
462
0.0
453
        0
470

  0
LWPOLYLINE
  5
AE
330
78
100
AcDbEntity
  8
0
100
AcDbPolyline
 90
        3
 70
     0
 43
0.0
 10
985.4352848556377
 20
556.3869688550457
 10
981.3712779664628
 20
580.8132987371751
 10
977.3072710772877
 20
556.3869688550457
  0
HATCH
  5
AF
330
78
100
AcDbEntity
  8
0
 62
    18
420
        0
440
 33554687
100
AcDbHatch
 10
0.0
 20
0.0
 30
0.0
210
0.0
220
0.0
230
1.0
  2
SOLID
 70
     1
 71
     1
 91
        1
 92
        3
 72
     0
 73
     1
 93
        3
 10
985.4352848556377
 20
556.3869688550457
 10
981.3712779664628
 20
580.8132987371751
 10
977.3072710772877
 20
556.3869688550457
 97
        0
 75
     2
 76
     1
 98
        1
 10
0.0
 20
0.0
450
        0
451
        0
460
0.0
461
0.0
452
        0
462
0.0
453
        0
470

  0
LWPOLYLINE
  5
B0
330
78
100
AcDbEntity
  8
0
 62
    18
420
        0
370
    25
100
AcDbPolyline
 90
        4
 70
     0
 43
0.0
 10
969.4756216380584
 20
392.4723401254062
 10
969.4756216380584
 20
406.7386527846001
 10
962.3635665183085
 20
397.2136527869813
 10
971.846277968844
 20
397.2136527869813
  0
LWPOLYLINE
  5
B1
330
78
100
AcDbEntity
  8
0
 62
    18
420
        0
370
    25
100
AcDbPolyline
 90
        4
 70
     0
 43
0.0
 10
983.7420204246374
 20
392.4723401254062
 10
983.7420204246374
 20
406.7386527846001
 10
976.6299653048877
 20
397.2136527869813
 10
986.1126767554269
 20
397.2136527869813
  0
LWPOLYLINE
  5
B2
330
78
100
AcDbEntity
  8
0
 62
    18
420
        0
370
    25
100
AcDbPolyline
 90
        9
 70
     0
 43
0.0
 10
990.853989417002
 20
394.8429964561957
 10
993.2246457477877
 20
392.4722970617133
 10
998.0082469564461
 20
392.4722970617133
 10
1000.378903287232
 20
394.8429964561957
 10
1000.378903287232
 20
399.5843091177708
 10
998.0082469564461
 20
401.997297059332
 10
990.853989417002
 20
401.997297059332
 10
990.853989417002
 20
406.7386527846001
 10
1000.378903287232
 20
406.7386527846001
  0
LINE
  5
B3
330
78
100
AcDbEntity
  8
0
 62
    18
420
        0
370
    25
100
AcDbLine
 10
289.1366579816438
 20
570.2300084701802
 30
0.0
 11
167.0896502606907
 21
570.2300084701802
 31
0.0
  0
LINE
  5
B4
330
78
100
AcDbEntity
  8
0
 62
    18
420
        0
370
    25
100
AcDbLine
 10
289.1366579816438
 20
228.9809844398251
 30
0.0
 11
167.0896502606907
 21
228.9809844398251
 31
0.0
  0
LINE
  5
B5
330
78
100
AcDbEntity
  8
0
 62
    18
420
        0
370
    25
100
AcDbLine
 10
171.153667915789
 20
545.8036355243583
 30
0.0
 11
171.153667915789
 21
412.9192832762196
 31
0.0
  0
LINE
  5
B6
330
78
100
AcDbEntity
  8
0
 62
    18
420
        0
370
    25
100
AcDbLine
 10
171.153667915789
 20
253.4073358538031
 30
0.0
 11
171.153667915789
 21
386.2916235064009
 31
0.0
  0
LWPOLYLINE
  5
B7
330
78
100
AcDbEntity
  8
0
100
AcDbPolyline
 90
        3
 70
     0
 43
0.0
 10
175.2176640390406
 20
545.8036355243583
 10
171.1536571498657
 20
570.2299654064876
 10
167.0896610266141
 20
545.8036355243583
  0
HATCH
  5
B8
330
78
100
AcDbEntity
  8
0
 62
    18
420
        0
440
 33554687
100
AcDbHatch
 10
0.0
 20
0.0
 30
0.0
210
0.0
220
0.0
230
1.0
  2
SOLID
 70
     1
 71
     1
 91
        1
 92
        3
 72
     0
 73
     1
 93
        3
 10
175.2176640390406
 20
545.8036355243583
 10
171.1536571498657
 20
570.2299654064876
 10
167.0896610266141
 20
545.8036355243583
 97
        0
 75
     2
 76
     1
 98
        1
 10
0.0
 20
0.0
450
        0
451
        0
460
0.0
461
0.0
452
        0
462
0.0
453
        0
470

  0
LWPOLYLINE
  5
B9
330
78
100
AcDbEntity
  8
0
100
AcDbPolyline
 90
        3
 70
     0
 43
0.0
 10
167.0896610266141
 20
253.4073358538031
 10
171.1536571498657
 20
228.9809844398251
 10
175.2176532731172
 20
253.4073358538031
  0
HATCH
  5
BA
330
78
100
AcDbEntity
  8
0
 62
    18
420
        0
440
 33554687
100
AcDbHatch
 10
0.0
 20
0.0
 30
0.0
210
0.0
220
0.0
230
1.0
  2
SOLID
 70
     1
 71
     1
 91
        1
 92
        3
 72
     0
 73
     1
 93
        3
 10
167.0896610266141
 20
253.4073358538031
 10
171.1536571498657
 20
228.9809844398251
 10
175.2176532731172
 20
253.4073358538031
 97
        0
 75
     2
 76
     1
 98
        1
 10
0.0
 20
0.0
450
        0
451
        0
460
0.0
461
0.0
452
        0
462
0.0
453
        0
470

  0
LWPOLYLINE
  5
BB
330
78
100
AcDbEntity
  8
0
 62
    18
420
        0
370
    25
100
AcDbPolyline
 90
        4
 70
     0
 43
0.0
 10
161.6286679181703
 20
392.4723401254062
 10
161.6286679181703
 20
406.7386527846001
 10
154.5166666280375
 20
397.2136527869813
 10
163.9993242489578
 20
397.2136527869813
  0
LINE
  5
BC
330
78
100
AcDbEntity
  8
0
 62
    18
420
        0
370
    25
100
AcDbLine
 10
168.7830008190781
 20
392.4723401254062
 30
0.0
 11
173.5243242465766
 21
392.4723401254062
 31
0.0
  0
LWPOLYLINE
  5
BD
330
78
100
AcDbEntity
  8
0
 62
    18
420
        0
370
    25
100
AcDbPolyline
 90
        3
 70
     0
 43
0.0
 10
171.153667915789
 20
392.4723401254062
 10
171.153667915789
 20
406.7386527846001
 10
168.7830008190781
 20
404.3679964538144
  0
LWPOLYLINE
  5
BE
330
78
100
AcDbEntity
  8
0
 62
    18
420
        0
370
    25
100
AcDbPolyline
 90
       10
 70
     0
 43
0.0
 10
187.7906692035406
 20
399.5843091177708
 10
180.6363255367094
 20
399.5843091177708
 10
178.2656692059219
 20
401.997297059332
 10
178.2656692059219
 20
404.3679533901182
 10
180.6363255367094
 20
406.7386097209071
 10
185.3776597301313
 20
406.7386097209071
 10
187.7906692035406
 20
404.3679533901182
 10
187.7906692035406
 20
397.2136097232884
 10
183.0069818674969
 20
392.4722970617133
 10
180.6363255367094
 20
392.4722970617133
  0
LINE
  5
BF
330
78
100
AcDbEntity
  8
0
 62
    18
420
        0
370
    25
100
AcDbLine
 10
290.3643177578126
 20
566.5469860779814
 30
0.0
 11
217.5933074407188
 21
566.5469860779814
 31
0.0
  0
LINE
  5
C0
330
78
100
AcDbEntity
  8
0
 62
    18
420
        0
370
    25
100
AcDbLine
 10
290.3643177578126
 20
232.6216536894032
 30
0.0
 11
217.5933074407188
 21
232.6216536894032
 31
0.0
  0
LINE
  5
C1
330
78
100
AcDbEntity
  8
0
 62
    18
420
        0
370
    25
100
AcDbLine
 10
221.6573358617406
 20
542.120656195852
 30
0.0
 11
221.6573358617406
 21
412.9192832762196
 31
0.0
  0
LINE
  5
C2
330
78
100
AcDbEntity
  8
0
 62
    18
420
        0
370
    25
100
AcDbLine
 10
221.6573358617406
 20
257.0903367141562
 30
0.0
 11
221.6573358617406
 21
386.2916665700938
 31
0.0
  0
LWPOLYLINE
  5
C3
330
78
100
AcDbEntity
  8
0
100
AcDbPolyline
 90
        3
 70
     0
 43
0.0
 10
225.7213212190688
 20
542.120656195852
 10
221.6573143298938
 20
566.5469860779814
 10
217.5933074407188
 20
542.120656195852
  0
HATCH
  5
C4
330
78
100
AcDbEntity
  8
0
 62
    18
420
        0
440
 33554687
100
AcDbHatch
 10
0.0
 20
0.0
 30
0.0
210
0.0
220
0.0
230
1.0
  2
SOLID
 70
     1
 71
     1
 91
        1
 92
        3
 72
     0
 73
     1
 93
        3
 10
225.7213212190688
 20
542.120656195852
 10
221.6573143298938
 20
566.5469860779814
 10
217.5933074407188
 20
542.120656195852
 97
        0
 75
     2
 76
     1
 98
        1
 10
0.0
 20
0.0
450
        0
451
        0
460
0.0
461
0.0
452
        0
462
0.0
453
        0
470

  0
LWPOLYLINE
  5
C5
330
78
100
AcDbEntity
  8
0
100
AcDbPolyline
 90
        3
 70
     0
 43
0.0
 10
217.5933289725656
 20
257.0903367141562
 10
221.6573143298938
 20
232.6216536894032
 10
225.7213212190688
 20
257.0903367141562
  0
HATCH
  5
C6
330
78
100
AcDbEntity
  8
0
 62
    18
420
        0
440
 33554687
100
AcDbHatch
 10
0.0
 20
0.0
 30
0.0
210
0.0
220
0.0
230
1.0
  2
SOLID
 70
     1
 71
     1
 91
        1
 92
        3
 72
     0
 73
     1
 93
        3
 10
217.5933289725656
 20
257.0903367141562
 10
221.6573143298938
 20
232.6216536894032
 10
225.7213212190688
 20
257.0903367141562
 97
        0
 75
     2
 76
     1
 98
        1
 10
0.0
 20
0.0
450
        0
451
        0
460
0.0
461
0.0
452
        0
462
0.0
453
        0
470

  0
LWPOLYLINE
  5
C7
330
78
100
AcDbEntity
  8
0
 62
    18
420
        0
370
    25
100
AcDbPolyline
 90
        4
 70
     0
 43
0.0
 10
213.3599956402907
 20
392.4723401254062
 10
213.3599956402907
 20
406.7386527846001
 10
206.2056519734595
 20
397.2136527869813
 10
215.7306519710782
 20
397.2136527869813
  0
LINE
  5
C8
330
78
100
AcDbEntity
  8
0
 62
    18
420
        0
370
    25
100
AcDbLine
 10
220.4719861645001
 20
392.4723401254062
 30
0.0
 11
225.2132988260751
 21
392.4723401254062
 31
0.0
  0
LWPOLYLINE
  5
C9
330
78
100
AcDbEntity
  8
0
 62
    18
420
        0
370
    25
100
AcDbPolyline
 90
        3
 70
     0
 43
0.0
 10
222.8426640271344
 20
392.4723401254062
 10
222.8426640271344
 20
406.7386527846001
 10
220.4719861645001
 20
404.3679964538144
  0
LWPOLYLINE
  5
CA
330
78
100
AcDbEntity
  8
0
 62
    18
420
        0
370
    25
100
AcDbPolyline
 90
        8
 70
     1
 43
0.0
 10
232.3253324139781
 20
392.4723401254062
 10
229.9546545513438
 20
394.8429964561957
 10
229.9546545513438
 20
404.3679964538144
 10
232.3253324139781
 20
406.7386527846001
 10
234.7383203555407
 20
406.7386527846001
 10
237.108998218175
 20
404.3679964538144
 10
237.108998218175
 20
394.8429964561957
 10
234.7383203555407
 20
392.4723401254062
  0
LINE
  5
CB
330
78
100
AcDbEntity
  8
0
 62
    18
420
        0
370
    25
100
AcDbLine
 10
285.0726510924689
 20
566.1660015810053
 30
0.0
 11
285.0726510924689
 21
660.0613038850074
 31
0.0
  0
LINE
  5
CC
330
78
100
AcDbEntity
  8
0
 62
    18
420
        0
370
    25
100
AcDbLine
 10
899.1600170006893
 20
566.1660015810053
 30
0.0
 11
899.1600170006893
 21
660.0613038850074
 31
0.0
  0
LINE
  5
CD
330
78
100
AcDbEntity
  8
0
 62
    18
420
        0
370
    25
100
AcDbLine
 10
309.4990025064469
 20
655.9972969958323
 30
0.0
 11
874.7336009911709
 21
655.9972969958323
 31
0.0
  0
LWPOLYLINE
  5
CE
330
78
100
AcDbEntity
  8
0
100
AcDbPolyline
 90
        3
 70
     0
 43
0.0
 10
309.4990025064469
 20
660.0613038850074
 10
285.0726510924689
 20
655.9972969958323
 10
309.4990025064469
 20
651.9332901066574
  0
HATCH
  5
CF
330
78
100
AcDbEntity
  8
0
 62
    18
420
        0
440
 33554687
100
AcDbHatch
 10
0.0
 20
0.0
 30
0.0
210
0.0
220
0.0
230
1.0
  2
SOLID
 70
     1
 71
     1
 91
        1
 92
        3
 72
     0
 73
     1
 93
        3
 10
309.4990025064469
 20
660.0613038850074
 10
285.0726510924689
 20
655.9972969958323
 10
309.4990025064469
 20
651.9332901066574
 97
        0
 75
     2
 76
     1
 98
        1
 10
0.0
 20
0.0
450
        0
451
        0
460
0.0
461
0.0
452
        0
462
0.0
453
        0
470

  0
LWPOLYLINE
  5
D0
330
78
100
AcDbEntity
  8
0
100
AcDbPolyline
 90
        3
 70
     0
 43
0.0
 10
874.7336871185561
 20
651.9333331703499
 10
899.1600170006893
 20
655.9972969958323
 10
874.7336871185561
 20
660.0613038850074
  0
HATCH
  5
D1
330
78
100
AcDbEntity
  8
0
 62
    18
420
        0
440
 33554687
100
AcDbHatch
 10
0.0
 20
0.0
 30
0.0
210
0.0
220
0.0
230
1.0
  2
SOLID
 70
     1
 71
     1
 91
        1
 92
        3
 72
     0
 73
     1
 93
        3
 10
874.7336871185561
 20
651.9333331703499
 10
899.1600170006893
 20
655.9972969958323
 10
874.7336871185561
 20
660.0613038850074
 97
        0
 75
     2
 76
     1
 98
        1
 10
0.0
 20
0.0
450
        0
451
        0
460
0.0
461
0.0
452
        0
462
0.0
453
        0
470

  0
LWPOLYLINE
  5
D2
330
78
100
AcDbEntity
  8
0
 62
    18
420
        0
370
    25
100
AcDbPolyline
 90
        3
 70
     0
 43
0.0
 10
573.1086441302697
 20
676.4866578848073
 10
582.6336010641959
 20
676.4866578848073
 10
575.4793004610554
 20
662.2203021619208
  0
LWPOLYLINE
  5
D3
330
78
100
AcDbEntity
  8
0
 62
    18
420
        0
370
    25
100
AcDbPolyline
 90
        9
 70
     0
 43
0.0
 10
587.3749998531563
 20
664.591001556399
 10
589.7456561839456
 20
662.2203021619208
 10
594.4869688455209
 20
662.2203021619208
 10
596.8999567870821
 20
664.591001556399
 10
596.8999567870821
 20
669.3323142179742
 10
594.4869688455209
 20
671.7029705487635
 10
587.3749998531563
 20
671.7029705487635
 10
587.3749998531563
 20
676.4866578848073
 10
596.8999567870821
 20
676.4866578848073
  0
LWPOLYLINE
  5
D4
330
78
100
AcDbEntity
  8
0
 62
    18
420
        0
370
    25
100
AcDbPolyline
 90
        4
 70
     0
 43
0.0
 10
608.7533245684069
 20
662.2203021619208
 10
608.7533245684069
 20
676.4866148211146
 10
601.6413125123501
 20
666.9616148234958
 10
611.1239808991932
 20
666.9616148234958
  0
LINE
  5
D5
330
78
100
AcDbEntity
  8
0
 62
    18
420
        0
370
    25
100
AcDbLine
 10
288.7556519528219
 20
564.9383418048365
 30
0.0
 11
288.7556519528219
 21
623.5276596205937
 31
0.0
  0
LINE
  5
D6
330
78
100
AcDbEntity
  8
0
 62
    18
420
        0
370
    25
100
AcDbLine
 10
895.5193262192626
 20
564.9383418048365
 30
0.0
 11
895.5193262192626
 21
623.5276596205937
 31
0.0
  0
LINE
  5
D7
330
78
100
AcDbEntity
  8
0
 62
    18
420
        0
370
    25
100
AcDbLine
 10
313.1820033668
 20
619.4636527314188
 30
0.0
 11
871.0929102097441
 21
619.4636527314188
 31
0.0
  0
LWPOLYLINE
  5
D8
330
78
100
AcDbEntity
  8
0
100
AcDbPolyline
 90
        3
 70
     0
 43
0.0
 10
313.1820033668
 20
623.5276596205937
 10
288.7556519528219
 20
619.4636527314188
 10
313.1820033668
 20
615.3996458422438
  0
HATCH
  5
D9
330
78
100
AcDbEntity
  8
0
 62
    18
420
        0
440
 33554687
100
AcDbHatch
 10
0.0
 20
0.0
 30
0.0
210
0.0
220
0.0
230
1.0
  2
SOLID
 70
     1
 71
     1
 91
        1
 92
        3
 72
     0
 73
     1
 93
        3
 10
313.1820033668
 20
623.5276596205937
 10
288.7556519528219
 20
619.4636527314188
 10
313.1820033668
 20
615.3996458422438
 97
        0
 75
     2
 76
     1
 98
        1
 10
0.0
 20
0.0
450
        0
451
        0
460
0.0
461
0.0
452
        0
462
0.0
453
        0
470

  0
LWPOLYLINE
  5
DA
330
78
100
AcDbEntity
  8
0
100
AcDbPolyline
 90
        3
 70
     0
 43
0.0
 10
871.0929963371333
 20
615.3996458422438
 10
895.5193262192626
 20
619.4636096677262
 10
871.0929963371333
 20
623.5276165569011
  0
HATCH
  5
DB
330
78
100
AcDbEntity
  8
0
 62
    18
420
        0
440
 33554687
100
AcDbHatch
 10
0.0
 20
0.0
 30
0.0
210
0.0
220
0.0
230
1.0
  2
SOLID
 70
     1
 71
     1
 91
        1
 92
        3
 72
     0
 73
     1
 93
        3
 10
871.0929963371333
 20
615.3996458422438
 10
895.5193262192626
 20
619.4636096677262
 10
871.0929963371333
 20
623.5276165569011
 97
        0
 75
     2
 76
     1
 98
        1
 10
0.0
 20
0.0
450
        0
451
        0
460
0.0
461
0.0
452
        0
462
0.0
453
        0
470

  0
LWPOLYLINE
  5
DC
330
78
100
AcDbEntity
  8
0
 62
    18
420
        0
370
    25
100
AcDbPolyline
 90
        3
 70
     0
 43
0.0
 10
573.1086441302697
 20
639.9106389459251
 10
582.6336010641959
 20
639.9106389459251
 10
575.4793004610554
 20
625.6866148338147
  0
LWPOLYLINE
  5
DD
330
78
100
AcDbEntity
  8
0
 62
    18
420
        0
370
    25
100
AcDbPolyline
 90
        4
 70
     0
 43
0.0
 10
594.4869688455209
 20
625.6866578975072
 10
594.4869688455209
 20
639.9106389459251
 10
587.3749567894637
 20
630.4279705590824
 10
596.8999567870821
 20
630.4279705590824
  0
LWPOLYLINE
  5
DE
330
78
100
AcDbEntity
  8
0
 62
    18
420
        0
370
    25
100
AcDbPolyline
 90
        9
 70
     0
 43
0.0
 10
601.6413125123501
 20
628.0573142282928
 10
604.0119688431396
 20
625.6866148338147
 10
608.7532815047146
 20
625.6866148338147
 10
611.1239378355003
 20
628.0573142282928
 10
611.1239378355003
 20
632.7986268898679
 10
608.7532815047146
 20
635.1692832206574
 10
601.6413125123501
 20
635.1692832206574
 10
601.6413125123501
 20
639.9106389459251
 10
611.1239378355003
 20
639.9106389459251
  0
LWPOLYLINE
  5
DF
330
78
100
AcDbEntity
  8
0
 62
    18
420
        0
370
    25
100
AcDbPolyline
 90
        3
 70
     0
 43
0.0
 10
958.0879446389502
 20
599.6939722893126
 10
928.1582469739086
 20
599.6939722893126
 10
910.9709239801565
 20
582.2949481779959
  0
LWPOLYLINE
  5
E0
330
78
100
AcDbEntity
  8
0
 62
    18
420
        0
370
    25
100
AcDbPolyline
 90
        7
 70
     0
 43
0.0
 10
934.3390066566062
 20
605.9169774554011
 10
934.3390066566062
 20
620.140958503819
 10
941.4932641960502
 20
620.140958503819
 10
943.8639205268398
 20
617.7703021730333
 10
943.8639205268398
 20
615.3996027785512
 10
941.4932641960502
 20
613.0289464477617
 10
934.3390066566062
 20
613.0289464477617
  0
LINE
  5
E1
330
78
100
AcDbEntity
  8
0
 62
    18
420
        0
370
    25
100
AcDbLine
 10
936.7096629873957
 20
613.0289895114582
 30
0.0
 11
943.8639205268398
 21
605.9169774554011
 31
0.0
  0
LWPOLYLINE
  5
E2
330
78
100
AcDbEntity
  8
0
 62
    18
420
        0
370
    25
100
AcDbPolyline
 90
        3
 70
     0
 43
0.0
 10
948.6053193158001
 20
620.1410015675115
 10
958.0879446389502
 20
620.1410015675115
 10
950.9759756465895
 20
605.9169774554011
  0
LWPOLYLINE
  5
E3
330
78
100
AcDbEntity
  8
0
100
AcDbPolyline
 90
        3
 70
     0
 43
0.0
 10
908.092288320071
 20
585.1736699654707
 10
893.8258895334881
 20
564.9382987411439
 10
913.8919343147147
 20
579.4586441286822
  0
HATCH
  5
E4
330
78
100
AcDbEntity
  8
0
 62
    18
420
        0
440
 33554687
100
AcDbHatch
 10
0.0
 20
0.0
 30
0.0
210
0.0
220
0.0
230
1.0
  2
SOLID
 70
     1
 71
     1
 91
        1
 92
        3
 72
     0
 73
     1
 93
        3
 10
908.092288320071
 20
585.1736699654707
 10
893.8258895334881
 20
564.9382987411439
 10
913.8919343147147
 20
579.4586441286822
 97
        0
 75
     2
 76
     1
 98
        1
 10
0.0
 20
0.0
450
        0
451
        0
460
0.0
461
0.0
452
        0
462
0.0
453
        0
470

  0
LWPOLYLINE
  5
E5
330
78
100
AcDbEntity
  8
0
 62
    18
420
        0
370
    25
100
AcDbPolyline
 90
        4
 70
     0
 43
0.0
 10
978.4926423063771
 20
186.52065628475
 10
941.4086009745023
 20
186.52065628475
 10
879.5595768742941
 20
248.6659801285345
 10
862.2875906589941
 20
265.9803194864563
  0
LINE
  5
E6
330
78
100
AcDbEntity
  8
0
 62
    18
420
        0
370
    25
100
AcDbLine
 10
879.5596630016833
 20
248.6660016603813
 30
0.0
 11
862.2875906589941
 21
265.9803194864563
 31
0.0
  0
LWPOLYLINE
  5
E7
330
78
100
AcDbEntity
  8
0
 62
    18
420
        0
370
    25
100
AcDbPolyline
 90
        7
 70
     0
 43
0.0
 10
947.6316492042833
 20
192.7013298400625
 10
947.6316492042833
 20
206.9676424992564
 10
954.7436181966439
 20
206.9676424992564
 10
957.1142745274334
 20
204.5969861684688
 10
957.1142745274334
 20
202.2263083058345
 10
954.7436181966439
 20
199.8556519750469
 10
947.6316492042833
 20
199.8556519750469
  0
LINE
  5
E8
330
78
100
AcDbEntity
  8
0
 62
    18
420
        0
370
    25
100
AcDbLine
 10
950.0023055350689
 20
199.8556519750469
 30
0.0
 11
957.1142745274334
 21
192.7013083082157
 31
0.0
  0
LINE
  5
E9
330
78
100
AcDbEntity
  8
0
 62
    18
420
        0
370
    25
100
AcDbLine
 10
961.8979618634771
 20
192.7013298400625
 30
0.0
 11
966.6392745250522
 21
192.7013298400625
 31
0.0
  0
LWPOLYLINE
  5
EA
330
78
100
AcDbEntity
  8
0
 62
    18
420
        0
370
    25
100
AcDbPolyline
 90
        3
 70
     0
 43
0.0
 10
964.2686181942627
 20
192.7013298400625
 10
964.2686181942627
 20
206.9676424992564
 10
961.897875736088
 20
204.5969861684688
  0
LWPOLYLINE
  5
EB
330
78
100
AcDbEntity
  8
0
 62
    18
420
        0
370
    25
100
AcDbPolyline
 90
        8
 70
     1
 43
0.0
 10
973.7513296448019
 20
192.7013298400625
 10
971.3805871866272
 20
195.114317781625
 10
971.3805871866272
 20
204.5969861684688
 10
973.7513296448019
 20
206.9676424992564
 10
976.1219859755875
 20
206.9676424992564
 10
978.4926423063771
 20
204.5969861684688
 10
978.4926423063771
 20
195.114317781625
 10
976.1219859755875
 20
192.7013298400625
  0
LWPOLYLINE
  5
EC
330
78
100
AcDbEntity
  8
0
100
AcDbPolyline
 90
        3
 70
     0
 43
0.0
 10
876.6386526671251
 20
245.7873229366001
 10
896.7892745425146
 20
231.3516407706126
 10
882.438298661769
 20
251.5446373204689
  0
HATCH
  5
ED
330
78
100
AcDbEntity
  8
0
 62
    18
420
        0
440
 33554687
100
AcDbHatch
 10
0.0
 20
0.0
 30
0.0
210
0.0
220
0.0
230
1.0
  2
SOLID
 70
     1
 71
     1
 91
        1
 92
        3
 72
     0
 73
     1
 93
        3
 10
876.6386526671251
 20
245.7873229366001
 10
896.7892745425146
 20
231.3516407706126
 10
882.438298661769
 20
251.5446373204689
 97
        0
 75
     2
 76
     1
 98
        1
 10
0.0
 20
0.0
450
        0
451
        0
460
0.0
461
0.0
452
        0
462
0.0
453
        0
470

  0
LWPOLYLINE
  5
EE
330
78
100
AcDbEntity
  8
0
100
AcDbPolyline
 90
        3
 70
     0
 43
0.0
 10
405.3839981761072
 20
243.4589982165875
 10
385.2332901733324
 20
229.0656476613751
 10
399.6266407285429
 20
249.2163126004563
  0
HATCH
  5
EF
330
78
100
AcDbEntity
  8
0
 62
    18
420
        0
440
 33554687
100
AcDbHatch
 10
0.0
 20
0.0
 30
0.0
210
0.0
220
0.0
230
1.0
  2
SOLID
 70
     1
 71
     1
 91
        1
 92
        3
 72
     0
 73
     1
 93
        3
 10
405.3839981761072
 20
243.4589982165875
 10
385.2332901733324
 20
229.0656476613751
 10
399.6266407285429
 20
249.2163126004563
 97
        0
 75
     2
 76
     1
 98
        1
 10
0.0
 20
0.0
450
        0
451
        0
460
0.0
461
0.0
452
        0
462
0.0
453
        0
470

  0
LWPOLYLINE
  5
F0
330
78
100
AcDbEntity
  8
0
 62
    18
420
        0
370
    25
100
AcDbPolyline
 90
        4
 70
     0
 43
0.0
 10
402.505319452325
 20
246.3376554085219
 10
477.9009757648583
 20
321.9026381641532
 10
491.7016407055242
 20
336.8039680486658
 10
516.1279705876573
 20
336.8039680486658
  0
LINE
  5
F1
330
78
100
AcDbEntity
  8
0
 62
    18
420
        0
370
    25
100
AcDbLine
 10
522.3509757537458
 20
335.3646502186219
 30
0.0
 11
526.4149395792243
 21
335.3646502186219
 31
0.0
  0
LINE
  5
F2
330
78
100
AcDbEntity
  8
0
 62
    18
420
        0
370
    25
100
AcDbLine
 10
524.3829791983313
 20
335.3646502186219
 30
0.0
 11
524.3829791983313
 21
347.5566493543001
 31
0.0
  0
LINE
  5
F3
330
78
100
AcDbEntity
  8
0
 62
    18
420
        0
370
    25
100
AcDbLine
 10
522.3509757537458
 20
347.5566493543001
 30
0.0
 11
526.4149395792243
 21
347.5566493543001
 31
0.0
  0
LWPOLYLINE
  5
F4
330
78
100
AcDbEntity
  8
0
 62
    18
420
        0
370
    25
100
AcDbPolyline
 90
        4
 70
     0
 43
0.0
 10
530.4789895320957
 20
335.3646502186219
 10
530.4789895320957
 20
347.5566493543001
 10
538.6069602467492
 20
335.3646502186219
 10
538.6069602467492
 20
347.5566493543001
  0
LWPOLYLINE
  5
F5
330
78
100
AcDbEntity
  8
0
 62
    18
420
        0
370
    25
100
AcDbPolyline
 90
        8
 70
     0
 43
0.0
 10
542.7133418103927
 20
337.3966536632095
 10
544.7453021912896
 20
335.3646502186219
 10
548.8093090804645
 20
335.3646502186219
 10
550.84131252505
 20
337.3966536632095
 10
542.7133418103927
 20
345.5246459097126
 10
544.7453021912896
 20
347.5566493543001
 10
548.8093090804645
 20
347.5566493543001
 10
550.84131252505
 20
345.5246459097126
  0
LWPOLYLINE
  5
F6
330
78
100
AcDbEntity
  8
0
 62
    18
420
        0
370
    25
100
AcDbPolyline
 90
        4
 70
     0
 43
0.0
 10
563.0756648033509
 20
335.3646502186219
 10
554.9053194142251
 20
335.3646502186219
 10
554.9053194142251
 20
347.5566493543001
 10
563.0756648033509
 20
347.5566493543001
  0
LINE
  5
F7
330
78
100
AcDbEntity
  8
0
 62
    18
420
        0
370
    25
100
AcDbLine
 10
554.9053194142251
 20
341.4606605523844
 30
0.0
 11
558.9692832397075
 21
341.4606605523844
 31
0.0
  0
LINE
  5
F8
330
78
100
AcDbEntity
  8
0
 62
    18
420
        0
370
    25
100
AcDbLine
 10
571.2036355180083
 20
335.3646502186219
 30
0.0
 11
571.2036355180083
 21
347.5566493543001
 31
0.0
  0
LINE
  5
F9
330
78
100
AcDbEntity
  8
0
 62
    18
420
        0
370
    25
100
AcDbLine
 10
567.139671692526
 20
347.5566493543001
 30
0.0
 11
575.2676424071832
 21
347.5566493543001
 31
0.0
  0
LWPOLYLINE
  5
FA
330
78
100
AcDbEntity
  8
0
 62
    18
420
        0
370
    25
100
AcDbPolyline
 90
        8
 70
     0
 43
0.0
 10
599.6939722893126
 20
337.3966536632095
 10
597.6619688447271
 20
335.3646502186219
 10
593.5979619555521
 20
335.3646502186219
 10
591.5659585109627
 20
337.3966536632095
 10
591.5659585109627
 20
345.5246459097126
 10
593.5979619555521
 20
347.5566493543001
 10
597.6619688447271
 20
347.5566493543001
 10
599.6939722893126
 20
345.5246459097126
  0
LWPOLYLINE
  5
FB
330
78
100
AcDbEntity
  8
0
 62
    18
420
        0
370
    25
100
AcDbPolyline
 90
        6
 70
     0
 43
0.0
 10
603.8003107892632
 20
347.5566493543001
 10
603.8003107892632
 20
337.3966321313627
 10
605.8322711701565
 20
335.3646286867752
 10
609.8962780593315
 20
335.3646286867752
 10
611.9282815039209
 20
337.3966321313627
 10
611.9282815039209
 20
347.5566493543001
  0
LINE
  5
FC
330
78
100
AcDbEntity
  8
0
 62
    18
420
        0
370
    25
100
AcDbLine
 10
620.056338345963
 20
335.3646502186219
 30
0.0
 11
620.056338345963
 21
347.5566493543001
 31
0.0
  0
LINE
  5
FD
330
78
100
AcDbEntity
  8
0
 62
    18
420
        0
370
    25
100
AcDbLine
 10
615.9923314567882
 20
347.5566493543001
 30
0.0
 11
624.1626337822182
 21
347.5566493543001
 31
0.0
  0
LWPOLYLINE
  5
FE
330
78
100
AcDbEntity
  8
0
 62
    18
420
        0
370
    25
100
AcDbPolyline
 90
        4
 70
     1
 43
0.0
 10
628.2266406713932
 20
335.3646502186219
 10
636.3546113860502
 20
335.3646502186219
 10
636.3546113860502
 20
347.5566493543001
 10
628.2266406713932
 20
347.5566493543001
  0
LWPOLYLINE
  5
FF
330
78
100
AcDbEntity
  8
0
 62
    18
420
        0
370
    25
100
AcDbPolyline
 90
        6
 70
     0
 43
0.0
 10
640.4186613389181
 20
347.5566493543001
 10
640.4186613389181
 20
337.3966321313627
 10
642.4506217198146
 20
335.3646286867752
 10
646.556960219762
 20
335.3646286867752
 10
648.5889636643507
 20
337.3966321313627
 10
648.5889636643507
 20
347.5566493543001
  0
LINE
  5
100
330
78
100
AcDbEntity
  8
0
 62
    18
420
        0
370
    25
100
AcDbLine
 10
656.7169774427007
 20
335.3646502186219
 30
0.0
 11
656.7169774427007
 21
347.5566493543001
 31
0.0
  0
LINE
  5
101
330
78
100
AcDbEntity
  8
0
 62
    18
420
        0
370
    25
100
AcDbLine
 10
652.6529705535258
 20
347.5566493543001
 30
0.0
 11
660.7809412681834
 21
347.5566493543001
 31
0.0
  0
LWPOLYLINE
  5
102
330
78
100
AcDbEntity
  8
0
100
AcDbPolyline
 90
        3
 70
     0
 43
0.0
 10
405.3839981761072
 20
243.4589982165875
 10
385.2332901733324
 20
229.0656476613751
 10
399.6266407285429
 20
249.2163126004563
  0
HATCH
  5
103
330
78
100
AcDbEntity
  8
0
 62
    18
420
        0
440
 33554687
100
AcDbHatch
 10
0.0
 20
0.0
 30
0.0
210
0.0
220
0.0
230
1.0
  2
SOLID
 70
     1
 71
     1
 91
        1
 92
        3
 72
     0
 73
     1
 93
        3
 10
405.3839981761072
 20
243.4589982165875
 10
385.2332901733324
 20
229.0656476613751
 10
399.6266407285429
 20
249.2163126004563
 97
        0
 75
     2
 76
     1
 98
        1
 10
0.0
 20
0.0
450
        0
451
        0
460
0.0
461
0.0
452
        0
462
0.0
453
        0
470

  0
LWPOLYLINE
  5
104
330
78
100
AcDbEntity
  8
0
 62
    18
420
        0
370
    25
100
AcDbPolyline
 90
        4
 70
     0
 43
0.0
 10
402.505319452325
 20
246.3376554085219
 10
477.9009757648583
 20
321.9026381641532
 10
491.7016407055242
 20
336.8039680486658
 10
516.1279705876573
 20
336.8039680486658
  0
LINE
  5
105
330
78
100
AcDbEntity
  8
0
 62
    18
420
        0
370
    25
100
AcDbLine
 10
522.3509757537458
 20
335.3646502186219
 30
0.0
 11
526.4149395792243
 21
335.3646502186219
 31
0.0
  0
LINE
  5
106
330
78
100
AcDbEntity
  8
0
 62
    18
420
        0
370
    25
100
AcDbLine
 10
524.3829791983313
 20
335.3646502186219
 30
0.0
 11
524.3829791983313
 21
347.5566493543001
 31
0.0
  0
LINE
  5
107
330
78
100
AcDbEntity
  8
0
 62
    18
420
        0
370
    25
100
AcDbLine
 10
522.3509757537458
 20
347.5566493543001
 30
0.0
 11
526.4149395792243
 21
347.5566493543001
 31
0.0
  0
LWPOLYLINE
  5
108
330
78
100
AcDbEntity
  8
0
 62
    18
420
        0
370
    25
100
AcDbPolyline
 90
        4
 70
     0
 43
0.0
 10
530.4789895320957
 20
335.3646502186219
 10
530.4789895320957
 20
347.5566493543001
 10
538.6069602467492
 20
335.3646502186219
 10
538.6069602467492
 20
347.5566493543001
  0
LWPOLYLINE
  5
109
330
78
100
AcDbEntity
  8
0
 62
    18
420
        0
370
    25
100
AcDbPolyline
 90
        8
 70
     0
 43
0.0
 10
542.7133418103927
 20
337.3966536632095
 10
544.7453021912896
 20
335.3646502186219
 10
548.8093090804645
 20
335.3646502186219
 10
550.84131252505
 20
337.3966536632095
 10
542.7133418103927
 20
345.5246459097126
 10
544.7453021912896
 20
347.5566493543001
 10
548.8093090804645
 20
347.5566493543001
 10
550.84131252505
 20
345.5246459097126
  0
LWPOLYLINE
  5
10A
330
78
100
AcDbEntity
  8
0
 62
    18
420
        0
370
    25
100
AcDbPolyline
 90
        4
 70
     0
 43
0.0
 10
563.0756648033509
 20
335.3646502186219
 10
554.9053194142251
 20
335.3646502186219
 10
554.9053194142251
 20
347.5566493543001
 10
563.0756648033509
 20
347.5566493543001
  0
LINE
  5
10B
330
78
100
AcDbEntity
  8
0
 62
    18
420
        0
370
    25
100
AcDbLine
 10
554.9053194142251
 20
341.4606605523844
 30
0.0
 11
558.9692832397075
 21
341.4606605523844
 31
0.0
  0
LINE
  5
10C
330
78
100
AcDbEntity
  8
0
 62
    18
420
        0
370
    25
100
AcDbLine
 10
571.2036355180083
 20
335.3646502186219
 30
0.0
 11
571.2036355180083
 21
347.5566493543001
 31
0.0
  0
LINE
  5
10D
330
78
100
AcDbEntity
  8
0
 62
    18
420
        0
370
    25
100
AcDbLine
 10
567.139671692526
 20
347.5566493543001
 30
0.0
 11
575.2676424071832
 21
347.5566493543001
 31
0.0
  0
LWPOLYLINE
  5
10E
330
78
100
AcDbEntity
  8
0
 62
    18
420
        0
370
    25
100
AcDbPolyline
 90
        8
 70
     0
 43
0.0
 10
599.6939722893126
 20
337.3966536632095
 10
597.6619688447271
 20
335.3646502186219
 10
593.5979619555521
 20
335.3646502186219
 10
591.5659585109627
 20
337.3966536632095
 10
591.5659585109627
 20
345.5246459097126
 10
593.5979619555521
 20
347.5566493543001
 10
597.6619688447271
 20
347.5566493543001
 10
599.6939722893126
 20
345.5246459097126
  0
LWPOLYLINE
  5
10F
330
78
100
AcDbEntity
  8
0
 62
    18
420
        0
370
    25
100
AcDbPolyline
 90
        6
 70
     0
 43
0.0
 10
603.8003107892632
 20
347.5566493543001
 10
603.8003107892632
 20
337.3966321313627
 10
605.8322711701565
 20
335.3646286867752
 10
609.8962780593315
 20
335.3646286867752
 10
611.9282815039209
 20
337.3966321313627
 10
611.9282815039209
 20
347.5566493543001
  0
LINE
  5
110
330
78
100
AcDbEntity
  8
0
 62
    18
420
        0
370
    25
100
AcDbLine
 10
620.056338345963
 20
335.3646502186219
 30
0.0
 11
620.056338345963
 21
347.5566493543001
 31
0.0
  0
LINE
  5
111
330
78
100
AcDbEntity
  8
0
 62
    18
420
        0
370
    25
100
AcDbLine
 10
615.9923314567882
 20
347.5566493543001
 30
0.0
 11
624.1626337822182
 21
347.5566493543001
 31
0.0
  0
LWPOLYLINE
  5
112
330
78
100
AcDbEntity
  8
0
 62
    18
420
        0
370
    25
100
AcDbPolyline
 90
        4
 70
     1
 43
0.0
 10
628.2266406713932
 20
335.3646502186219
 10
636.3546113860502
 20
335.3646502186219
 10
636.3546113860502
 20
347.5566493543001
 10
628.2266406713932
 20
347.5566493543001
  0
LWPOLYLINE
  5
113
330
78
100
AcDbEntity
  8
0
 62
    18
420
        0
370
    25
100
AcDbPolyline
 90
        6
 70
     0
 43
0.0
 10
640.4186613389181
 20
347.5566493543001
 10
640.4186613389181
 20
337.3966321313627
 10
642.4506217198146
 20
335.3646286867752
 10
646.556960219762
 20
335.3646286867752
 10
648.5889636643507
 20
337.3966321313627
 10
648.5889636643507
 20
347.5566493543001
  0
LINE
  5
114
330
78
100
AcDbEntity
  8
0
 62
    18
420
        0
370
    25
100
AcDbLine
 10
656.7169774427007
 20
335.3646502186219
 30
0.0
 11
656.7169774427007
 21
347.5566493543001
 31
0.0
  0
LINE
  5
115
330
78
100
AcDbEntity
  8
0
 62
    18
420
        0
370
    25
100
AcDbLine
 10
652.6529705535258
 20
347.5566493543001
 30
0.0
 11
660.7809412681834
 21
347.5566493543001
 31
0.0
  0
LWPOLYLINE
  5
116
330
78
100
AcDbEntity
  8
0
 62
    18
420
        0
370
    25
100
AcDbPolyline
 90
        3
 70
     0
 43
0.0
 10
974.0899825310021
 20
620.6913125075876
 10
965.961968752652
 20
620.6913125075876
 10
965.961968752652
 20
608.4569602292868
  0
LINE
  5
117
330
78
100
AcDbEntity
  8
0
 62
    18
420
        0
370
    25
100
AcDbLine
 10
965.961968752652
 20
614.5529705630511
 30
0.0
 11
970.0258895144381
 21
614.5529705630511
 31
0.0
  0
LWPOLYLINE
  5
118
330
78
100
AcDbEntity
  8
0
 62
    18
420
        0
370
    25
100
AcDbPolyline
 90
        4
 70
     1
 43
0.0
 10
978.1962779672564
 20
608.4569602292868
 10
986.3242917456064
 20
608.4569602292868
 10
986.3242917456064
 20
620.6913125075876
 10
978.1962779672564
 20
620.6913125075876
  0
LWPOLYLINE
  5
119
330
78
100
AcDbEntity
  8
0
 62
    18
420
        0
370
    25
100
AcDbPolyline
 90
        7
 70
     0
 43
0.0
 10
990.3882986347815
 20
608.4570032929831
 10
990.3882986347815
 20
620.6913125075876
 10
996.4842228411567
 20
620.6913125075876
 10
998.5586009602148
 20
618.6593090630021
 10
998.5586009602148
 20
616.6273056184126
 10
996.4842228411567
 20
614.5529705630511
 10
990.3882986347815
 20
614.5529705630511
  0
LINE
  5
11A
330
78
100
AcDbEntity
  8
0
 62
    18
420
        0
370
    25
100
AcDbLine
 10
992.4203020793708
 20
614.5529705630511
 30
0.0
 11
998.5586009602148
 21
608.4569602292868
 31
0.0
  0
LWPOLYLINE
  5
11B
330
78
100
AcDbEntity
  8
0
 62
    18
420
        0
370
    25
100
AcDbPolyline
 90
        6
 70
     0
 43
0.0
 10
1014.814628516914
 20
620.6913125075876
 10
1014.814628516914
 20
610.4889636738761
 10
1016.846545834115
 20
608.4569602292868
 10
1020.952927397758
 20
608.4569602292868
 10
1022.984930842344
 20
610.4889636738761
 10
1022.984930842344
 20
620.6913125075876
  0
LWPOLYLINE
  5
11C
330
78
100
AcDbEntity
  8
0
 62
    18
420
        0
370
    25
100
AcDbPolyline
 90
        4
 70
     0
 43
0.0
 10
1027.048937731519
 20
608.4570032929831
 10
1027.048937731519
 20
620.6913125075876
 10
1035.176865382483
 20
608.4570032929831
 10
1035.176865382483
 20
620.6913125075876
  0
LWPOLYLINE
  5
11D
330
78
100
AcDbEntity
  8
0
 62
    18
420
        0
370
    25
100
AcDbPolyline
 90
        6
 70
     0
 43
0.0
 10
1039.283333073512
 20
608.4570032929831
 10
1045.379257279888
 20
608.4570032929831
 10
1047.411260724477
 20
610.4889636738761
 10
1047.411260724477
 20
618.6593090630021
 10
1045.379257279888
 20
620.6913125075876
 10
1039.283333073512
 20
620.6913125075876
  0
LINE
  5
11E
330
78
100
AcDbEntity
  8
0
 62
    18
420
        0
370
    25
100
AcDbLine
 10
1041.315336518102
 20
620.6913125075876
 30
0.0
 11
1041.315336518102
 21
608.4569602292868
 31
0.0
  0
LWPOLYLINE
  5
11F
330
78
100
AcDbEntity
  8
0
 62
    18
420
        0
370
    25
100
AcDbPolyline
 90
        4
 70
     0
 43
0.0
 10
1059.645656066471
 20
608.4570032929831
 10
1051.475267613652
 20
608.4570032929831
 10
1051.475267613652
 20
620.6913125075876
 10
1059.645656066471
 20
620.6913125075876
  0
LINE
  5
120
330
78
100
AcDbEntity
  8
0
 62
    18
420
        0
370
    25
100
AcDbLine
 10
1051.475267613652
 20
614.5529705630511
 30
0.0
 11
1055.539188375438
 21
614.5529705630511
 31
0.0
  0
LWPOLYLINE
  5
121
330
78
100
AcDbEntity
  8
0
 62
    18
420
        0
370
    25
100
AcDbPolyline
 90
        7
 70
     0
 43
0.0
 10
1063.709662955645
 20
608.4570032929831
 10
1063.709662955645
 20
620.6913125075876
 10
1069.805587162021
 20
620.6913125075876
 10
1071.837590606606
 20
618.6593090630021
 10
1071.837590606606
 20
616.6273056184126
 10
1069.805587162021
 20
614.5529705630511
 10
1063.709662955645
 20
614.5529705630511
  0
LINE
  5
122
330
78
100
AcDbEntity
  8
0
 62
    18
420
        0
370
    25
100
AcDbLine
 10
1065.741666400231
 20
614.5529705630511
 30
0.0
 11
1071.837590606606
 21
608.4569602292868
 31
0.0
  0
LWPOLYLINE
  5
123
330
78
100
AcDbEntity
  8
0
 62
    18
420
        0
370
    25
100
AcDbPolyline
 90
        5
 70
     0
 43
0.0
 10
1075.90168362317
 20
608.4570032929831
 10
1075.90168362317
 20
620.6913125075876
 10
1079.965604384956
 20
612.5209671184617
 10
1084.0719859486
 20
620.6913125075876
 10
1084.0719859486
 20
608.4570032929831
  0
LWPOLYLINE
  5
124
330
78
100
AcDbEntity
  8
0
 62
    18
420
        0
370
    25
100
AcDbPolyline
 90
        4
 70
     1
 43
0.0
 10
1088.13590671039
 20
608.4569602292868
 10
1096.26392048874
 20
608.4569602292868
 10
1096.26392048874
 20
620.6913125075876
 10
1088.13590671039
 20
620.6913125075876
  0
LWPOLYLINE
  5
125
330
78
100
AcDbEntity
  8
0
 62
    18
420
        0
370
    25
100
AcDbPolyline
 90
        6
 70
     0
 43
0.0
 10
1100.3280135053
 20
620.6913125075876
 10
1100.3280135053
 20
610.4889636738761
 10
1102.402305496969
 20
608.4569602292868
 10
1106.466312386144
 20
608.4569602292868
 10
1108.498315830733
 20
610.4889636738761
 10
1108.498315830733
 20
620.6913125075876
  0
LWPOLYLINE
  5
126
330
78
100
AcDbEntity
  8
0
 62
    18
420
        0
370
    25
100
AcDbPolyline
 90
        4
 70
     0
 43
0.0
 10
1112.562322719908
 20
608.4570032929831
 10
1112.562322719908
 20
620.6913125075876
 10
1120.690250370869
 20
608.4570032929831
 10
1120.690250370869
 20
620.6913125075876
  0
LINE
  5
127
330
78
100
AcDbEntity
  8
0
 62
    18
420
        0
370
    25
100
AcDbLine
 10
1128.860638823687
 20
608.4570032929831
 30
0.0
 11
1128.860638823687
 21
620.6913125075876
 31
0.0
  0
LINE
  5
128
330
78
100
AcDbEntity
  8
0
 62
    18
420
        0
370
    25
100
AcDbLine
 10
1124.796631934513
 20
620.6913125075876
 30
0.0
 11
1132.924559585477
 21
620.6913125075876
 31
0.0
  0
LWPOLYLINE
  5
129
330
78
100
AcDbEntity
  8
0
 62
    18
420
        0
370
    25
100
AcDbPolyline
 90
        3
 70
     0
 43
0.0
 10
1000.675353753737
 20
204.5546545576938
 10
992.5049653009189
 20
204.5546545576938
 10
992.5049653009189
 20
192.3626338901689
  0
LINE
  5
12A
330
78
100
AcDbEntity
  8
0
 62
    18
420
        0
370
    25
100
AcDbLine
 10
992.5049653009189
 20
198.4586657557781
 30
0.0
 11
996.5688860627086
 21
198.4586657557781
 31
0.0
  0
LWPOLYLINE
  5
12B
330
78
100
AcDbEntity
  8
0
 62
    18
420
        0
370
    25
100
AcDbPolyline
 90
        4
 70
     1
 43
0.0
 10
1004.739274515527
 20
192.3626554220156
 10
1012.867288293877
 20
192.3626554220156
 10
1012.867288293877
 20
204.5546545576938
 10
1004.739274515527
 20
204.5546545576938
  0
LWPOLYLINE
  5
12C
330
78
100
AcDbEntity
  8
0
 62
    18
420
        0
370
    25
100
AcDbPolyline
 90
        7
 70
     0
 43
0.0
 10
1016.931295183052
 20
192.3626554220156
 10
1016.931295183052
 20
204.5546545576938
 10
1023.069594063896
 20
204.5546545576938
 10
1025.101597508481
 20
202.5226511131063
 10
1025.101597508481
 20
200.4906476685188
 10
1023.069594063896
 20
198.4586442239313
 10
1016.931295183052
 20
198.4586442239313
  0
LINE
  5
12D
330
78
100
AcDbEntity
  8
0
 62
    18
420
        0
370
    25
100
AcDbLine
 10
1018.963298627638
 20
198.4586657557781
 30
0.0
 11
1025.101597508481
 21
192.3626554220156
 31
0.0
  0
LINE
  5
12E
330
78
100
AcDbEntity
  8
0
 62
    18
420
        0
370
    25
100
AcDbLine
 10
1041.39999973965
 20
192.3626554220156
 30
0.0
 11
1045.46392050144
 21
192.3626554220156
 31
0.0
  0
LINE
  5
12F
330
78
100
AcDbEntity
  8
0
 62
    18
420
        0
370
    25
100
AcDbLine
 10
1043.432003184239
 20
192.3626554220156
 30
0.0
 11
1043.432003184239
 21
204.5546545576938
 31
0.0
  0
LINE
  5
130
330
78
100
AcDbEntity
  8
0
 62
    18
420
        0
370
    25
100
AcDbLine
 10
1041.39999973965
 20
204.5546545576938
 30
0.0
 11
1045.46392050144
 21
204.5546545576938
 31
0.0
  0
LWPOLYLINE
  5
131
330
78
100
AcDbEntity
  8
0
 62
    18
420
        0
370
    25
100
AcDbPolyline
 90
        4
 70
     0
 43
0.0
 10
1049.528013518
 20
192.3626554220156
 10
1049.528013518
 20
204.5546545576938
 10
1057.655941168964
 20
192.3626554220156
 10
1057.655941168964
 20
204.5546545576938
  0
LWPOLYLINE
  5
132
330
78
100
AcDbEntity
  8
0
 62
    18
420
        0
370
    25
100
AcDbPolyline
 90
        8
 70
     0
 43
0.0
 10
1061.719948058139
 20
194.3946588666032
 10
1063.794240049809
 20
192.3626554220156
 10
1067.858246938983
 20
192.3626554220156
 10
1069.890250383569
 20
194.3946588666032
 10
1061.719948058139
 20
202.5226511131063
 10
1063.794240049809
 20
204.5546545576938
 10
1067.858246938983
 20
204.5546545576938
 10
1069.890250383569
 20
202.5226511131063
  0
LWPOLYLINE
  5
133
330
78
100
AcDbEntity
  8
0
 62
    18
420
        0
370
    25
100
AcDbPolyline
 90
        4
 70
     0
 43
0.0
 10
1082.082271051094
 20
192.3626554220156
 10
1073.954257272744
 20
192.3626554220156
 10
1073.954257272744
 20
204.5546545576938
 10
1082.082271051094
 20
204.5546545576938
  0
LINE
  5
134
330
78
100
AcDbEntity
  8
0
 62
    18
420
        0
370
    25
100
AcDbLine
 10
1073.954343400133
 20
198.4586657557781
 30
0.0
 11
1078.018264161919
 21
198.4586657557781
 31
0.0
  0
LINE
  5
135
330
78
100
AcDbEntity
  8
0
 62
    18
420
        0
370
    25
100
AcDbLine
 10
1090.252659503912
 20
192.3626554220156
 30
0.0
 11
1090.252659503912
 21
204.5546545576938
 31
0.0
  0
LINE
  5
136
330
78
100
AcDbEntity
  8
0
 62
    18
420
        0
370
    25
100
AcDbLine
 10
1086.188652614737
 20
204.5546545576938
 30
0.0
 11
1094.316580265702
 21
204.5546545576938
 31
0.0
  0
LWPOLYLINE
  5
137
330
78
100
AcDbEntity
  8
0
 62
    18
420
        0
370
    25
100
AcDbPolyline
 90
        3
 70
     0
 43
0.0
 10
19.76966563896153
 20
191.1349956458469
 10
11.64166531801583
 20
191.1349956458469
 10
11.64166531801583
 20
178.9429857442454
  0
LINE
  5
138
330
78
100
AcDbEntity
  8
0
 62
    18
420
        0
370
    25
100
AcDbLine
 10
11.64166666375625
 20
185.0389853120844
 30
0.0
 11
15.70566547848868
 21
185.0389853120844
 31
0.0
  0
LWPOLYLINE
  5
139
330
78
100
AcDbEntity
  8
0
 62
    18
420
        0
370
    25
100
AcDbPolyline
 90
        4
 70
     1
 43
0.0
 10
23.83366579943438
 20
178.9429857442454
 10
32.00399773115509
 20
178.9429857442454
 10
32.00399773115509
 20
191.1349956458469
 10
23.83366579943438
 20
191.1349956458469
  0
LWPOLYLINE
  5
13A
330
78
100
AcDbEntity
  8
0
 62
    18
420
        0
370
    25
100
AcDbPolyline
 90
        7
 70
     0
 43
0.0
 10
36.06799923736869
 20
178.9429965101687
 10
36.06799923736869
 20
191.1349956458469
 10
42.16399880520742
 20
191.1349956458469
 10
44.19599686683322
 20
189.1029922012594
 10
44.19599686683322
 20
187.0709887566719
 10
42.16399880520742
 20
185.0389853120844
 10
36.06799923736869
 20
185.0389853120844
  0
LINE
  5
13B
330
78
100
AcDbEntity
  8
0
 62
    18
420
        0
370
    25
100
AcDbLine
 10
38.099999990475
 20
185.0389853120844
 30
0.0
 11
44.19599955831406
 21
178.942974978322
 31
0.0
  0
LWPOLYLINE
  5
13C
330
78
100
AcDbEntity
  8
0
 62
    18
420
        0
370
    25
100
AcDbPolyline
 90
        3
 70
     0
 43
0.0
 10
68.66466643418204
 20
191.1349956458469
 10
60.49433181098048
 20
191.1349956458469
 10
60.49433181098048
 20
178.9429857442454
  0
LINE
  5
13D
330
78
100
AcDbEntity
  8
0
 62
    18
420
        0
370
    25
100
AcDbLine
 10
60.49433181098048
 20
185.0389853120844
 30
0.0
 11
64.55832793423205
 21
185.0389853120844
 31
0.0
  0
LWPOLYLINE
  5
13E
330
78
100
AcDbEntity
  8
0
 62
    18
420
        0
370
    25
100
AcDbPolyline
 90
        3
 70
     0
 43
0.0
 10
72.72866255743361
 20
191.1349956458469
 10
72.72866255743361
 20
178.9429857442454
 10
80.85666018689847
 20
178.9429857442454
  0
LWPOLYLINE
  5
13F
330
78
100
AcDbEntity
  8
0
 62
    18
420
        0
370
    25
100
AcDbPolyline
 90
        6
 70
     0
 43
0.0
 10
84.92066707607344
 20
191.1349956458469
 10
84.92066707607344
 20
180.9749784229095
 10
86.95266513769922
 20
178.9429857442454
 10
91.05899825468783
 20
178.9429857442454
 10
93.09099093335161
 20
180.9749784229095
 10
93.09099093335161
 20
191.1349956458469
  0
LWPOLYLINE
  5
140
330
78
100
AcDbEntity
  8
0
 62
    18
420
        0
370
    25
100
AcDbPolyline
 90
        8
 70
     0
 43
0.0
 10
97.15499782252658
 20
180.9749999547562
 10
99.18699050119066
 20
178.9429965101687
 10
103.2509973903656
 20
178.9429965101687
 10
105.2829900690297
 20
180.9749999547562
 10
97.15499782252658
 20
189.1029922012594
 10
99.18699050119066
 20
191.1349956458469
 10
103.2509973903656
 20
191.1349956458469
 10
105.2829900690297
 20
189.1029922012594
  0
LINE
  5
141
330
78
100
AcDbEntity
  8
0
 62
    18
420
        0
370
    25
100
AcDbLine
 10
109.3893285689797
 20
178.9429965101687
 30
0.0
 11
109.3893285689797
 21
191.1349956458469
 31
0.0
  0
LINE
  5
142
330
78
100
AcDbEntity
  8
0
 62
    18
420
        0
370
    25
100
AcDbLine
 10
109.3893285689797
 20
185.0389853120844
 30
0.0
 11
117.5173208154828
 21
185.0389853120844
 31
0.0
  0
LINE
  5
143
330
78
100
AcDbEntity
  8
0
 62
    18
420
        0
370
    25
100
AcDbLine
 10
117.5173315814066
 20
191.1349956458469
 30
0.0
 11
117.5173315814066
 21
178.9429857442454
 31
0.0
  0
LWPOLYLINE
  5
144
330
78
100
AcDbEntity
  8
0
 62
    18
420
        0
370
    25
100
AcDbPolyline
 90
        5
 70
     0
 43
0.0
 10
133.815658451111
 20
178.9429965101687
 10
133.815658451111
 20
191.1349956458469
 10
137.8796545743629
 20
183.0069818674969
 10
141.9436506976141
 20
191.1349956458469
 10
141.9436506976141
 20
178.9429965101687
  0
LWPOLYLINE
  5
145
330
78
100
AcDbEntity
  8
0
 62
    18
420
        0
370
    25
100
AcDbPolyline
 90
        4
 70
     1
 43
0.0
 10
146.0076575867891
 20
178.9429857442454
 10
154.1779922099906
 20
178.9429857442454
 10
154.1779922099906
 20
191.1349956458469
 10
146.0076575867891
 20
191.1349956458469
  0
LWPOLYLINE
  5
146
330
78
100
AcDbEntity
  8
0
 62
    18
420
        0
370
    25
100
AcDbPolyline
 90
        6
 70
     0
 43
0.0
 10
158.2419990991656
 20
191.1349956458469
 10
158.2419990991656
 20
180.9749784229095
 10
160.2739917778297
 20
178.9429857442454
 10
164.3379986670047
 20
178.9429857442454
 10
166.3699913456691
 20
180.9749784229095
 10
166.3699913456691
 20
191.1349956458469
  0
LWPOLYLINE
  5
147
330
78
100
AcDbEntity
  8
0
 62
    18
420
        0
370
    25
100
AcDbPolyline
 90
        4
 70
     0
 43
0.0
 10
170.4339982348441
 20
178.9429965101687
 10
170.4339982348441
 20
191.1349956458469
 10
178.6043220921219
 20
178.9429965101687
 10
178.6043220921219
 20
191.1349956458469
  0
LINE
  5
148
330
78
100
AcDbEntity
  8
0
 62
    18
420
        0
370
    25
100
AcDbLine
 10
186.7323358704718
 20
178.9429965101687
 30
0.0
 11
186.7323358704718
 21
191.1349956458469
 31
0.0
  0
LINE
  5
149
330
78
100
AcDbEntity
  8
0
 62
    18
420
        0
370
    25
100
AcDbLine
 10
182.6683289812969
 20
191.1349956458469
 30
0.0
 11
190.7963212278
 21
191.1349956458469
 31
0.0
  0
LINE
  5
14A
330
78
100
AcDbEntity
  8
0
 62
    18
420
        0
370
    25
100
AcDbLine
 10
274.4893177617813
 20
239.2679964950875
 30
0.0
 11
274.4893177617813
 21
249.6396502400532
 31
0.0
  0
LINE
  5
14B
330
78
100
AcDbEntity
  8
0
 62
    18
420
        0
370
    25
100
AcDbLine
 10
274.4893177617813
 20
254.8043220730719
 30
0.0
 11
274.4893177617813
 21
265.1336442072626
 31
0.0
  0
LINE
  5
14C
330
78
100
AcDbEntity
  8
0
 62
    18
420
        0
370
    25
100
AcDbLine
 10
274.4893177617813
 20
270.2983375721281
 30
0.0
 11
274.4893177617813
 21
280.6699913170938
 31
0.0
  0
LINE
  5
14D
330
78
100
AcDbEntity
  8
0
 62
    18
420
        0
370
    25
100
AcDbLine
 10
274.4893177617813
 20
285.8346631501125
 30
0.0
 11
274.4893177617813
 21
296.1639852843032
 31
0.0
  0
LINE
  5
14E
330
78
100
AcDbEntity
  8
0
 62
    18
420
        0
370
    25
100
AcDbLine
 10
274.4893177617813
 20
301.3286571173219
 30
0.0
 11
274.4893177617813
 21
311.7003108622876
 31
0.0
  0
LINE
  5
14F
330
78
100
AcDbEntity
  8
0
 62
    18
420
        0
370
    25
100
AcDbLine
 10
274.4893177617813
 20
316.8649826953064
 30
0.0
 11
274.4893177617813
 21
327.194304829497
 31
0.0
  0
LINE
  5
150
330
78
100
AcDbEntity
  8
0
 62
    18
420
        0
370
    25
100
AcDbLine
 10
274.4893177617813
 20
332.3589981943625
 30
0.0
 11
274.4893177617813
 21
342.7306519393282
 31
0.0
  0
LINE
  5
151
330
78
100
AcDbEntity
  8
0
 62
    18
420
        0
370
    25
100
AcDbLine
 10
274.4893177617813
 20
347.8953237723469
 30
0.0
 11
274.4893177617813
 21
358.2246459065376
 31
0.0
  0
LINE
  5
152
330
78
100
AcDbEntity
  8
0
 62
    18
420
        0
370
    25
100
AcDbLine
 10
274.4893177617813
 20
363.389317739557
 30
0.0
 11
274.4893177617813
 21
373.7609499526759
 31
0.0
  0
LINE
  5
153
330
78
100
AcDbEntity
  8
0
 62
    18
420
        0
370
    25
100
AcDbLine
 10
274.4893177617813
 20
378.9256648493882
 30
0.0
 11
274.4893177617813
 21
389.2549654517314
 31
0.0
  0
LINE
  5
154
330
78
100
AcDbEntity
  8
0
 62
    18
420
        0
370
    25
100
AcDbLine
 10
274.4893177617813
 20
394.4196372847508
 30
0.0
 11
274.4893177617813
 21
404.7912694978696
 31
0.0
  0
LINE
  5
155
330
78
100
AcDbEntity
  8
0
 62
    18
420
        0
370
    25
100
AcDbLine
 10
274.4893177617813
 20
409.955984394582
 30
0.0
 11
274.4893177617813
 21
420.2852849969252
 31
0.0
  0
LINE
  5
156
330
78
100
AcDbEntity
  8
0
 62
    18
420
        0
370
    25
100
AcDbLine
 10
274.4893177617813
 20
425.4499998936375
 30
0.0
 11
274.4893177617813
 21
435.8216321067564
 31
0.0
  0
LINE
  5
157
330
78
100
AcDbEntity
  8
0
 62
    18
420
        0
370
    25
100
AcDbLine
 10
274.4893177617813
 20
440.9863039397761
 30
0.0
 11
274.4893177617813
 21
451.315604542119
 31
0.0
  0
LINE
  5
158
330
78
100
AcDbEntity
  8
0
 62
    18
420
        0
370
    25
100
AcDbLine
 10
274.4893177617813
 20
456.4803194388312
 30
0.0
 11
274.4893177617813
 21
466.8519516519502
 31
0.0
  0
LINE
  5
159
330
78
100
AcDbEntity
  8
0
 62
    18
420
        0
370
    25
100
AcDbLine
 10
274.4893177617813
 20
472.0166665486624
 30
0.0
 11
274.4893177617813
 21
482.3459671510054
 31
0.0
  0
LINE
  5
15A
330
78
100
AcDbEntity
  8
0
 62
    18
420
        0
370
    25
100
AcDbLine
 10
274.4893177617813
 20
487.5106389840251
 30
0.0
 11
274.4893177617813
 21
497.882271197144
 31
0.0
  0
LINE
  5
15B
330
78
100
AcDbEntity
  8
0
 62
    18
420
        0
370
    25
100
AcDbLine
 10
274.4893177617813
 20
503.0469860938563
 30
0.0
 11
274.4893177617813
 21
513.3762866961992
 31
0.0
  0
LINE
  5
15C
330
78
100
AcDbEntity
  8
0
 62
    18
420
        0
370
    25
100
AcDbLine
 10
274.4893177617813
 20
518.5410015929115
 30
0.0
 11
274.4893177617813
 21
528.9126338060305
 31
0.0
  0
LINE
  5
15D
330
78
100
AcDbEntity
  8
0
 62
    18
420
        0
370
    25
100
AcDbLine
 10
274.4893177617813
 20
534.0773056390501
 30
0.0
 11
274.4893177617813
 21
544.4066062413931
 31
0.0
  0
LINE
  5
15E
330
78
100
AcDbEntity
  8
0
 62
    18
420
        0
370
    25
100
AcDbLine
 10
274.4893177617813
 20
549.5713211381054
 30
0.0
 11
274.4893177617813
 21
559.9429533512242
 31
0.0
  0
LINE
  5
15F
330
78
100
AcDbEntity
  8
0
 62
    18
420
        0
370
    25
100
AcDbLine
 10
292.184663148525
 20
580.8132987371751
 30
0.0
 11
302.5139852827157
 21
580.8132987371751
 31
0.0
  0
LINE
  5
160
330
78
100
AcDbEntity
  8
0
 62
    18
420
        0
370
    25
100
AcDbLine
 10
307.6786571157344
 20
580.8132987371751
 30
0.0
 11
318.0079792499251
 21
580.8132987371751
 31
0.0
  0
LINE
  5
161
330
78
100
AcDbEntity
  8
0
 62
    18
420
        0
370
    25
100
AcDbLine
 10
323.2149826937189
 20
580.8132987371751
 30
0.0
 11
333.5443048279095
 21
580.8132987371751
 31
0.0
  0
LINE
  5
162
330
78
100
AcDbEntity
  8
0
 62
    18
420
        0
370
    25
100
AcDbLine
 10
338.708998192775
 20
580.8132987371751
 30
0.0
 11
349.0383203269657
 21
580.8132987371751
 31
0.0
  0
LINE
  5
163
330
78
100
AcDbEntity
  8
0
 62
    18
420
        0
370
    25
100
AcDbLine
 10
354.2453237707591
 20
580.8132987371751
 30
0.0
 11
364.5746459049501
 21
580.8132987371751
 31
0.0
  0
LINE
  5
164
330
78
100
AcDbEntity
  8
0
 62
    18
420
        0
370
    25
100
AcDbLine
 10
369.7393177379698
 20
580.8132987371751
 30
0.0
 11
380.0686183403127
 21
580.8132987371751
 31
0.0
  0
LINE
  5
165
330
78
100
AcDbEntity
  8
0
 62
    18
420
        0
370
    25
100
AcDbLine
 10
385.275664847801
 20
580.8132987371751
 30
0.0
 11
395.6049654501439
 21
580.8132987371751
 31
0.0
  0
LINE
  5
166
330
78
100
AcDbEntity
  8
0
 62
    18
420
        0
370
    25
100
AcDbLine
 10
400.7696372831635
 20
580.8132987371751
 30
0.0
 11
411.0989378855065
 21
580.8132987371751
 31
0.0
  0
LINE
  5
167
330
78
100
AcDbEntity
  8
0
 62
    18
420
        0
370
    25
100
AcDbLine
 10
416.3059843929947
 20
580.8132987371751
 30
0.0
 11
426.6352849953377
 21
580.8132987371751
 31
0.0
  0
LINE
  5
168
330
78
100
AcDbEntity
  8
0
 62
    18
420
        0
370
    25
100
AcDbLine
 10
431.79999989205
 20
580.8132987371751
 30
0.0
 11
442.129300494393
 21
580.8132987371751
 31
0.0
  0
LINE
  5
169
330
78
100
AcDbEntity
  8
0
 62
    18
420
        0
370
    25
100
AcDbLine
 10
447.3363039381886
 20
580.8132987371751
 30
0.0
 11
457.6656045405315
 21
580.8132987371751
 31
0.0
  0
LINE
  5
16A
330
78
100
AcDbEntity
  8
0
 62
    18
420
        0
370
    25
100
AcDbLine
 10
462.8303194372437
 20
580.8132987371751
 30
0.0
 11
473.1596200395867
 21
580.8132987371751
 31
0.0
  0
LINE
  5
16B
330
78
100
AcDbEntity
  8
0
 62
    18
420
        0
370
    25
100
AcDbLine
 10
478.3666665470749
 20
580.8132987371751
 30
0.0
 11
488.6959671494179
 21
580.8132987371751
 31
0.0
  0
LINE
  5
16C
330
78
100
AcDbEntity
  8
0
 62
    18
420
        0
370
    25
100
AcDbLine
 10
493.8606389824376
 20
580.8132987371751
 30
0.0
 11
504.1899395847805
 21
580.8132987371751
 31
0.0
  0
LINE
  5
16D
330
78
100
AcDbEntity
  8
0
 62
    18
420
        0
370
    25
100
AcDbLine
 10
509.3969860922688
 20
580.8132987371751
 30
0.0
 11
519.7262866946117
 21
580.8132987371751
 31
0.0
  0
LINE
  5
16E
330
78
100
AcDbEntity
  8
0
 62
    18
420
        0
370
    25
100
AcDbLine
 10
524.891001591324
 20
580.8132987371751
 30
0.0
 11
535.2203021936708
 21
580.8132987371751
 31
0.0
  0
LINE
  5
16F
330
78
100
AcDbEntity
  8
0
 62
    18
420
        0
370
    25
100
AcDbLine
 10
540.4273056374626
 20
580.8132987371751
 30
0.0
 11
550.7566062398056
 21
580.8132987371751
 31
0.0
  0
LINE
  5
170
330
78
100
AcDbEntity
  8
0
 62
    18
420
        0
370
    25
100
AcDbLine
 10
555.9213211365179
 20
580.8132987371751
 30
0.0
 11
566.2506217388646
 21
580.8132987371751
 31
0.0
  0
LINE
  5
171
330
78
100
AcDbEntity
  8
0
 62
    18
420
        0
370
    25
100
AcDbLine
 10
571.457668246349
 20
580.8132987371751
 30
0.0
 11
581.7869688486958
 21
580.8132987371751
 31
0.0
  0
LINE
  5
172
330
78
100
AcDbEntity
  8
0
 62
    18
420
        0
370
    25
100
AcDbLine
 10
586.9516406817116
 20
580.8132987371751
 30
0.0
 11
597.2809412840584
 21
580.8132987371751
 31
0.0
  0
LINE
  5
173
330
78
100
AcDbEntity
  8
0
 62
    18
420
        0
370
    25
100
AcDbLine
 10
602.4879877915432
 20
580.8132987371751
 30
0.0
 11
612.8172883938896
 21
580.8132987371751
 31
0.0
  0
LINE
  5
174
330
78
100
AcDbEntity
  8
0
 62
    18
420
        0
370
    25
100
AcDbLine
 10
617.9820032906019
 20
580.8132987371751
 30
0.0
 11
628.3113038929445
 21
580.8132987371751
 31
0.0
  0
LINE
  5
175
330
78
100
AcDbEntity
  8
0
 62
    18
420
        0
370
    25
100
AcDbLine
 10
633.518307336737
 20
580.8132987371751
 30
0.0
 11
643.8476079390834
 21
580.8132987371751
 31
0.0
  0
LINE
  5
176
330
78
100
AcDbEntity
  8
0
 62
    18
420
        0
370
    25
100
AcDbLine
 10
649.0123228357957
 20
580.8132987371751
 30
0.0
 11
659.3416234381384
 21
580.8132987371751
 31
0.0
  0
LINE
  5
177
330
78
100
AcDbEntity
  8
0
 62
    18
420
        0
370
    25
100
AcDbLine
 10
664.5486699456268
 20
580.8132987371751
 30
0.0
 11
674.8779705479695
 21
580.8132987371751
 31
0.0
  0
LINE
  5
178
330
78
100
AcDbEntity
  8
0
 62
    18
420
        0
370
    25
100
AcDbLine
 10
680.0426423809896
 20
580.8132987371751
 30
0.0
 11
690.3719429833321
 21
580.8132987371751
 31
0.0
  0
LINE
  5
179
330
78
100
AcDbEntity
  8
0
 62
    18
420
        0
370
    25
100
AcDbLine
 10
695.5789894908207
 20
580.8132987371751
 30
0.0
 11
705.9082900931634
 21
580.8132987371751
 31
0.0
  0
LINE
  5
17A
330
78
100
AcDbEntity
  8
0
 62
    18
420
        0
370
    25
100
AcDbLine
 10
711.0730049898757
 20
580.8132987371751
 30
0.0
 11
721.4023055922189
 21
580.8132987371751
 31
0.0
  0
LINE
  5
17B
330
78
100
AcDbEntity
  8
0
 62
    18
420
        0
370
    25
100
AcDbLine
 10
726.6093090360145
 20
580.8132987371751
 30
0.0
 11
736.9385665746648
 21
580.8132987371751
 31
0.0
  0
LINE
  5
17C
330
78
100
AcDbEntity
  8
0
 62
    18
420
        0
370
    25
100
AcDbLine
 10
742.1032814713771
 20
580.8132987371751
 30
0.0
 11
752.4749136844961
 21
580.8132987371751
 31
0.0
  0
LINE
  5
17D
330
78
100
AcDbEntity
  8
0
 62
    18
420
        0
370
    25
100
AcDbLine
 10
757.6396285812084
 20
580.8132987371751
 30
0.0
 11
767.9688861198586
 21
580.8132987371751
 31
0.0
  0
LINE
  5
17E
330
78
100
AcDbEntity
  8
0
 62
    18
420
        0
370
    25
100
AcDbLine
 10
773.1336871439562
 20
580.8132987371751
 30
0.0
 11
783.5053193570751
 21
580.8132987371751
 31
0.0
  0
LINE
  5
17F
330
78
100
AcDbEntity
  8
0
 62
    18
420
        0
370
    25
100
AcDbLine
 10
788.6699481264022
 20
580.8132987371751
 30
0.0
 11
798.9992056650525
 21
580.8132987371751
 31
0.0
  0
LINE
  5
180
330
78
100
AcDbEntity
  8
0
 62
    18
420
        0
370
    25
100
AcDbLine
 10
804.1640066891499
 20
580.8132987371751
 30
0.0
 11
814.5356389022689
 21
580.8132987371751
 31
0.0
  0
LINE
  5
181
330
78
100
AcDbEntity
  8
0
 62
    18
420
        0
370
    25
100
AcDbLine
 10
819.7003537989811
 20
580.8132987371751
 30
0.0
 11
830.0296113376315
 21
580.8132987371751
 31
0.0
  0
LINE
  5
182
330
78
100
AcDbEntity
  8
0
 62
    18
420
        0
370
    25
100
AcDbLine
 10
835.1943262343437
 20
580.8132987371751
 30
0.0
 11
845.5659584474627
 21
580.8132987371751
 31
0.0
  0
LINE
  5
183
330
78
100
AcDbEntity
  8
0
 62
    18
420
        0
370
    25
100
AcDbLine
 10
850.7306733441749
 20
580.8132987371751
 30
0.0
 11
861.0599308828254
 21
580.8132987371751
 31
0.0
  0
LINE
  5
184
330
78
100
AcDbEntity
  8
0
 62
    18
420
        0
370
    25
100
AcDbLine
 10
866.2246457795376
 20
580.8132987371751
 30
0.0
 11
876.5962779926566
 21
580.8132987371751
 31
0.0
  0
LINE
  5
185
330
78
100
AcDbEntity
  8
0
 62
    18
420
        0
370
    25
100
AcDbLine
 10
881.7609928893688
 20
580.8132987371751
 30
0.0
 11
892.090250428019
 21
580.8132987371751
 31
0.0
  0
LINE
  5
186
330
78
100
AcDbEntity
  8
0
 62
    18
420
        0
370
    25
100
AcDbLine
 10
897.2549653247314
 20
580.8132987371751
 30
0.0
 11
905.6792573148127
 21
580.8132987371751
 31
0.0
  0
SPLINE
  5
187
330
78
100
AcDbEntity
  8
0
 62
    18
420
        0
370
    25
100
AcDbSpline
210
0.0
220
0.0
230
1.0
 70
     8
 71
     3
 72
     8
 73
     4
 74
     0
 42
0.0000000001
 43
0.0000000001
 40
0.0
 40
0.0
 40
0.0
 40
0.0
 40
1.0
 40
1.0
 40
1.0
 40
1.0
 10
909.7856388784563
 20
576.7493349116928
 30
0.0
 10
909.7865862797167
 20
579.0184039893599
 30
0.0
 10
907.9633556215336
 20
580.8416346475432
 30
0.0
 10
905.7143111613772
 20
580.8416346475432
 30
0.0
  0
LINE
  5
188
330
78
100
AcDbEntity
  8
0
 62
    18
420
        0
370
    25
100
AcDbLine
 10
909.7856388784563
 20
576.7493349116928
 30
0.0
 11
909.7856388784563
 21
565.1076682479365
 31
0.0
  0
LINE
  5
189
330
78
100
AcDbEntity
  8
0
 62
    18
420
        0
370
    25
100
AcDbLine
 10
909.7856388784563
 20
559.9429964149207
 30
0.0
 11
909.7856388784563
 21
549.5713211381054
 31
0.0
  0
LINE
  5
18A
330
78
100
AcDbEntity
  8
0
 62
    18
420
        0
370
    25
100
AcDbLine
 10
909.7856388784563
 20
544.4066493050895
 30
0.0
 11
909.7856388784563
 21
534.0773056390501
 31
0.0
  0
LINE
  5
18B
330
78
100
AcDbEntity
  8
0
 62
    18
420
        0
370
    25
100
AcDbLine
 10
909.7856388784563
 20
528.9126338060305
 30
0.0
 11
909.7856388784563
 21
518.5409585292189
 31
0.0
  0
LINE
  5
18C
330
78
100
AcDbEntity
  8
0
 62
    18
420
        0
370
    25
100
AcDbLine
 10
909.7856388784563
 20
513.3763297598957
 30
0.0
 11
909.7856388784563
 21
503.0469860938563
 31
0.0
  0
LINE
  5
18D
330
78
100
AcDbEntity
  8
0
 62
    18
420
        0
370
    25
100
AcDbLine
 10
909.7856388784563
 20
497.8823142608367
 30
0.0
 11
909.7856388784563
 21
487.5106389840251
 31
0.0
  0
LINE
  5
18E
330
78
100
AcDbEntity
  8
0
 62
    18
420
        0
370
    25
100
AcDbLine
 10
909.7856388784563
 20
482.3460102147018
 30
0.0
 11
909.7856388784563
 21
472.0166665486624
 31
0.0
  0
LINE
  5
18F
330
78
100
AcDbEntity
  8
0
 62
    18
420
        0
370
    25
100
AcDbLine
 10
909.7856388784563
 20
466.8519947156428
 30
0.0
 11
909.7856388784563
 21
456.4803194388312
 31
0.0
  0
LINE
  5
190
330
78
100
AcDbEntity
  8
0
 62
    18
420
        0
370
    25
100
AcDbLine
 10
909.7856388784563
 20
451.3156476058116
 30
0.0
 11
909.7856388784563
 21
440.9863039397761
 31
0.0
  0
LINE
  5
191
330
78
100
AcDbEntity
  8
0
 62
    18
420
        0
370
    25
100
AcDbLine
 10
909.7856388784563
 20
435.821675170449
 30
0.0
 11
909.7856388784563
 21
425.4499998936375
 31
0.0
  0
LINE
  5
192
330
78
100
AcDbEntity
  8
0
 62
    18
420
        0
370
    25
100
AcDbLine
 10
909.7856388784563
 20
420.2853280606178
 30
0.0
 11
909.7856388784563
 21
409.955984394582
 31
0.0
  0
LINE
  5
193
330
78
100
AcDbEntity
  8
0
 62
    18
420
        0
370
    25
100
AcDbLine
 10
909.7856388784563
 20
404.7913125615626
 30
0.0
 11
909.7856388784563
 21
394.4196372847508
 31
0.0
  0
LINE
  5
194
330
78
100
AcDbEntity
  8
0
 62
    18
420
        0
370
    25
100
AcDbLine
 10
909.7856388784563
 20
389.2550085154243
 30
0.0
 11
909.7856388784563
 21
378.9256648493882
 31
0.0
  0
LINE
  5
195
330
78
100
AcDbEntity
  8
0
 62
    18
420
        0
370
    25
100
AcDbLine
 10
909.7856388784563
 20
373.7609930163688
 30
0.0
 11
909.7856388784563
 21
363.389317739557
 31
0.0
  0
LINE
  5
196
330
78
100
AcDbEntity
  8
0
 62
    18
420
        0
370
    25
100
AcDbLine
 10
909.7856388784563
 20
358.2246674383857
 30
0.0
 11
909.7856388784563
 21
347.8953237723469
 31
0.0
  0
LINE
  5
197
330
78
100
AcDbEntity
  8
0
 62
    18
420
        0
370
    25
100
AcDbLine
 10
909.7856388784563
 20
342.7306519393282
 30
0.0
 11
909.7856388784563
 21
332.3589766625157
 31
0.0
  0
LINE
  5
198
330
78
100
AcDbEntity
  8
0
 62
    18
420
        0
370
    25
100
AcDbLine
 10
909.7856388784563
 20
327.1943263613438
 30
0.0
 11
909.7856388784563
 21
316.8649826953064
 31
0.0
  0
LINE
  5
199
330
78
100
AcDbEntity
  8
0
 62
    18
420
        0
370
    25
100
AcDbLine
 10
909.7856388784563
 20
311.7003323941344
 30
0.0
 11
909.7856388784563
 21
301.3286571173219
 31
0.0
  0
LINE
  5
19A
330
78
100
AcDbEntity
  8
0
 62
    18
420
        0
370
    25
100
AcDbLine
 10
909.7856388784563
 20
296.1639852843032
 30
0.0
 11
909.7856388784563
 21
285.8346416182657
 31
0.0
  0
LINE
  5
19B
330
78
100
AcDbEntity
  8
0
 62
    18
420
        0
370
    25
100
AcDbLine
 10
909.7856388784563
 20
280.6699913170938
 30
0.0
 11
909.7856388784563
 21
270.2983160402813
 31
0.0
  0
LINE
  5
19C
330
78
100
AcDbEntity
  8
0
 62
    18
420
        0
370
    25
100
AcDbLine
 10
909.7856388784563
 20
265.1336657391094
 30
0.0
 11
909.7856388784563
 21
254.8043220730719
 31
0.0
  0
LINE
  5
19D
330
78
100
AcDbEntity
  8
0
 62
    18
420
        0
370
    25
100
AcDbLine
 10
909.7856388784563
 20
249.6396717719
 30
0.0
 11
909.7856388784563
 21
239.2679964950875
 31
0.0
  0
LINE
  5
19E
330
78
100
AcDbEntity
  8
0
 62
    18
420
        0
370
    25
100
AcDbLine
 10
892.0903365554082
 20
218.3976511091376
 30
0.0
 11
881.7609928893688
 21
218.3976511091376
 31
0.0
  0
LINE
  5
19F
330
78
100
AcDbEntity
  8
0
 62
    18
420
        0
370
    25
100
AcDbLine
 10
876.5962779926566
 20
218.3976511091376
 30
0.0
 11
866.2245596521524
 21
218.3976511091376
 31
0.0
  0
LINE
  5
1A0
330
78
100
AcDbEntity
  8
0
 62
    18
420
        0
370
    25
100
AcDbLine
 10
861.0600170102143
 20
218.3976511091376
 30
0.0
 11
850.7306733441749
 21
218.3976511091376
 31
0.0
  0
LINE
  5
1A1
330
78
100
AcDbEntity
  8
0
 62
    18
420
        0
370
    25
100
AcDbLine
 10
845.5659584474627
 20
218.3976511091376
 30
0.0
 11
835.1942401069587
 21
218.3976511091376
 31
0.0
  0
LINE
  5
1A2
330
78
100
AcDbEntity
  8
0
 62
    18
420
        0
370
    25
100
AcDbLine
 10
830.0296113376315
 20
218.3976511091376
 30
0.0
 11
819.7002676715959
 21
218.3976511091376
 31
0.0
  0
LINE
  5
1A3
330
78
100
AcDbEntity
  8
0
 62
    18
420
        0
370
    25
100
AcDbLine
 10
814.5356389022689
 20
218.3976511091376
 30
0.0
 11
804.1639205617649
 21
218.3976511091376
 31
0.0
  0
LINE
  5
1A4
330
78
100
AcDbEntity
  8
0
 62
    18
420
        0
370
    25
100
AcDbLine
 10
798.9992917924377
 20
218.3976511091376
 30
0.0
 11
788.6699481264022
 21
218.3976511091376
 31
0.0
  0
LINE
  5
1A5
330
78
100
AcDbEntity
  8
0
 62
    18
420
        0
370
    25
100
AcDbLine
 10
783.5053193570751
 20
218.3976511091376
 30
0.0
 11
773.1336010165709
 21
218.3976511091376
 31
0.0
  0
LINE
  5
1A6
330
78
100
AcDbEntity
  8
0
 62
    18
420
        0
370
    25
100
AcDbLine
 10
767.9689722472438
 20
218.3976511091376
 30
0.0
 11
757.6396285812084
 21
218.3976511091376
 31
0.0
  0
LINE
  5
1A7
330
78
100
AcDbEntity
  8
0
 62
    18
420
        0
370
    25
100
AcDbLine
 10
752.4749998118813
 20
218.3976511091376
 30
0.0
 11
742.1032814713771
 21
218.3976511091376
 31
0.0
  0
LINE
  5
1A8
330
78
100
AcDbEntity
  8
0
 62
    18
420
        0
370
    25
100
AcDbLine
 10
736.9386527020501
 20
218.3976511091376
 30
0.0
 11
726.6093090360145
 21
218.3976511091376
 31
0.0
  0
LINE
  5
1A9
330
78
100
AcDbEntity
  8
0
 62
    18
420
        0
370
    25
100
AcDbLine
 10
721.4023055922189
 20
218.3976511091376
 30
0.0
 11
711.0729619261833
 21
218.3976511091376
 31
0.0
  0
LINE
  5
1AA
330
78
100
AcDbEntity
  8
0
 62
    18
420
        0
370
    25
100
AcDbLine
 10
705.9083331568563
 20
218.3976511091376
 30
0.0
 11
695.5789894908207
 21
218.3976511091376
 31
0.0
  0
LINE
  5
1AB
330
78
100
AcDbEntity
  8
0
 62
    18
420
        0
370
    25
100
AcDbLine
 10
690.3719860470251
 20
218.3976511091376
 30
0.0
 11
680.0426423809896
 21
218.3976511091376
 31
0.0
  0
LINE
  5
1AC
330
78
100
AcDbEntity
  8
0
 62
    18
420
        0
370
    25
100
AcDbLine
 10
674.8779705479695
 20
218.3976511091376
 30
0.0
 11
664.5486268819308
 21
218.3976511091376
 31
0.0
  0
LINE
  5
1AD
330
78
100
AcDbEntity
  8
0
 62
    18
420
        0
370
    25
100
AcDbLine
 10
659.3416665018312
 20
218.3976511091376
 30
0.0
 11
649.0123228357957
 21
218.3976511091376
 31
0.0
  0
LINE
  5
1AE
330
78
100
AcDbEntity
  8
0
 62
    18
420
        0
370
    25
100
AcDbLine
 10
643.8476510027757
 20
218.3976511091376
 30
0.0
 11
633.518307336737
 21
218.3976511091376
 31
0.0
  0
LINE
  5
1AF
330
78
100
AcDbEntity
  8
0
 62
    18
420
        0
370
    25
100
AcDbLine
 10
628.3113038929445
 20
218.3976511091376
 30
0.0
 11
617.9819602269057
 21
218.3976511091376
 31
0.0
  0
LINE
  5
1B0
330
78
100
AcDbEntity
  8
0
 62
    18
420
        0
370
    25
100
AcDbLine
 10
612.8173314575819
 20
218.3976511091376
 30
0.0
 11
602.4879877915432
 21
218.3976511091376
 31
0.0
  0
LINE
  5
1B1
330
78
100
AcDbEntity
  8
0
 62
    18
420
        0
370
    25
100
AcDbLine
 10
597.2809843477507
 20
218.3976511091376
 30
0.0
 11
586.9516406817116
 21
218.3976511091376
 31
0.0
  0
LINE
  5
1B2
330
78
100
AcDbEntity
  8
0
 62
    18
420
        0
370
    25
100
AcDbLine
 10
581.7869688486958
 20
218.3976511091376
 30
0.0
 11
571.4576251826564
 21
218.3976511091376
 31
0.0
  0
LINE
  5
1B3
330
78
100
AcDbEntity
  8
0
 62
    18
420
        0
370
    25
100
AcDbLine
 10
566.2506648025572
 20
218.3976511091376
 30
0.0
 11
555.9213211365179
 21
218.3976511091376
 31
0.0
  0
LINE
  5
1B4
330
78
100
AcDbEntity
  8
0
 62
    18
420
        0
370
    25
100
AcDbLine
 10
550.756649303502
 20
218.3976511091376
 30
0.0
 11
540.4273056374626
 21
218.3976511091376
 31
0.0
  0
LINE
  5
1B5
330
78
100
AcDbEntity
  8
0
 62
    18
420
        0
370
    25
100
AcDbLine
 10
535.2203021936708
 20
218.3976511091376
 30
0.0
 11
524.8909585276314
 21
218.3976511091376
 31
0.0
  0
LINE
  5
1B6
330
78
100
AcDbEntity
  8
0
 62
    18
420
        0
370
    25
100
AcDbLine
 10
519.7263297583082
 20
218.3976511091376
 30
0.0
 11
509.3969860922688
 21
218.3976511091376
 31
0.0
  0
LINE
  5
1B7
330
78
100
AcDbEntity
  8
0
 62
    18
420
        0
370
    25
100
AcDbLine
 10
504.189982648477
 20
218.3976511091376
 30
0.0
 11
493.8606389824376
 21
218.3976511091376
 31
0.0
  0
LINE
  5
1B8
330
78
100
AcDbEntity
  8
0
 62
    18
420
        0
370
    25
100
AcDbLine
 10
488.6960102131143
 20
218.3976511091376
 30
0.0
 11
478.3666665470749
 21
218.3976511091376
 31
0.0
  0
LINE
  5
1B9
330
78
100
AcDbEntity
  8
0
 62
    18
420
        0
370
    25
100
AcDbLine
 10
473.1596631032831
 20
218.3976511091376
 30
0.0
 11
462.8303194372437
 21
218.3976511091376
 31
0.0
  0
LINE
  5
1BA
330
78
100
AcDbEntity
  8
0
 62
    18
420
        0
370
    25
100
AcDbLine
 10
457.6656476042241
 20
218.3976511091376
 30
0.0
 11
447.3363039381886
 21
218.3976511091376
 31
0.0
  0
LINE
  5
1BB
330
78
100
AcDbEntity
  8
0
 62
    18
420
        0
370
    25
100
AcDbLine
 10
442.1293435580893
 20
218.3976511091376
 30
0.0
 11
431.79999989205
 21
218.3976511091376
 31
0.0
  0
LINE
  5
1BC
330
78
100
AcDbEntity
  8
0
 62
    18
420
        0
370
    25
100
AcDbLine
 10
426.6353280590303
 20
218.3976511091376
 30
0.0
 11
416.3059843929947
 21
218.3976511091376
 31
0.0
  0
LINE
  5
1BD
330
78
100
AcDbEntity
  8
0
 62
    18
420
        0
370
    25
100
AcDbLine
 10
411.0989809491991
 20
218.3976511091376
 30
0.0
 11
400.7696372831635
 21
218.3976511091376
 31
0.0
  0
LINE
  5
1BE
330
78
100
AcDbEntity
  8
0
 62
    18
420
        0
370
    25
100
AcDbLine
 10
395.6050085138365
 20
218.3976511091376
 30
0.0
 11
385.275664847801
 21
218.3976511091376
 31
0.0
  0
LINE
  5
1BF
330
78
100
AcDbEntity
  8
0
 62
    18
420
        0
370
    25
100
AcDbLine
 10
380.0686614040054
 20
218.3976511091376
 30
0.0
 11
369.7393177379698
 21
218.3976511091376
 31
0.0
  0
LINE
  5
1C0
330
78
100
AcDbEntity
  8
0
 62
    18
420
        0
370
    25
100
AcDbLine
 10
364.5746459049501
 20
218.3976511091376
 30
0.0
 11
354.2453022389146
 21
218.3976511091376
 31
0.0
  0
LINE
  5
1C1
330
78
100
AcDbEntity
  8
0
 62
    18
420
        0
370
    25
100
AcDbLine
 10
349.0383203269657
 20
218.3976511091376
 30
0.0
 11
338.7089766609282
 21
218.3976511091376
 31
0.0
  0
LINE
  5
1C2
330
78
100
AcDbEntity
  8
0
 62
    18
420
        0
370
    25
100
AcDbLine
 10
333.5443263597563
 20
218.3976511091376
 30
0.0
 11
323.2149826937189
 21
218.3976511091376
 31
0.0
  0
LINE
  5
1C3
330
78
100
AcDbEntity
  8
0
 62
    18
420
        0
370
    25
100
AcDbLine
 10
318.0080007817719
 20
218.3976511091376
 30
0.0
 11
307.6786571157344
 21
218.3976511091376
 31
0.0
  0
LINE
  5
1C4
330
78
100
AcDbEntity
  8
0
 62
    18
420
        0
370
    25
100
AcDbLine
 10
302.5139852827157
 20
218.3976511091376
 30
0.0
 11
292.1846416166782
 21
218.3976511091376
 31
0.0
  0
LINE
  5
1C5
330
78
100
AcDbEntity
  8
0
 62
    18
420
        0
370
    25
100
AcDbLine
 10
285.0726510924689
 20
237.108998218175
 30
0.0
 11
285.0726510924689
 21
562.1019516281377
 31
0.0
  0
SPLINE
  5
1C6
330
78
100
AcDbEntity
  8
0
 62
    18
420
        0
370
    25
100
AcDbSpline
210
0.0
220
0.0
230
1.0
 70
     8
 71
     3
 72
     8
 73
     4
 74
     0
 42
0.0000000001
 43
0.0000000001
 40
0.0
 40
0.0
 40
0.0
 40
0.0
 40
1.0
 40
1.0
 40
1.0
 40
1.0
 10
293.2429964815938
 20
570.2300084701802
 30
0.0
 10
288.7475559784316
 20
570.2537796290284
 30
0.0
 10
285.1011377257625
 20
566.6073183126658
 30
0.0
 10
285.1011377257625
 20
562.1092293923493
 30
0.0
  0
LINE
  5
1C7
330
78
100
AcDbEntity
  8
0
 62
    18
420
        0
370
    25
100
AcDbLine
 10
293.2429964815938
 20
570.2300084701802
 30
0.0
 11
891.0319170949504
 21
570.2300084701802
 31
0.0
  0
SPLINE
  5
1C8
330
78
100
AcDbEntity
  8
0
 62
    18
420
        0
370
    25
100
AcDbSpline
210
0.0
220
0.0
230
1.0
 70
     8
 71
     3
 72
     8
 73
     4
 74
     0
 42
0.0000000001
 43
0.0000000001
 40
0.0
 40
0.0
 40
0.0
 40
0.0
 40
1.0
 40
1.0
 40
1.0
 40
1.0
 10
899.1600170006893
 20
562.1019946918303
 30
0.0
 10
899.1987743248984
 20
566.6073183126658
 30
0.0
 10
895.5523130085357
 20
570.2537796290284
 30
0.0
 10
891.0542240882191
 20
570.2537796290284
 30
0.0
  0
LINE
  5
1C9
330
78
100
AcDbEntity
  8
0
 62
    18
420
        0
370
    25
100
AcDbLine
 10
899.1600170006893
 20
562.1019946918303
 30
0.0
 11
899.1600170006893
 21
237.108998218175
 31
0.0
  0
SPLINE
  5
1CA
330
78
100
AcDbEntity
  8
0
 62
    18
420
        0
370
    25
100
AcDbSpline
210
0.0
220
0.0
230
1.0
 70
     8
 71
     3
 72
     8
 73
     4
 74
     0
 42
0.0000000001
 43
0.0000000001
 40
0.0
 40
0.0
 40
0.0
 40
0.0
 40
1.0
 40
1.0
 40
1.0
 40
1.0
 10
891.0320032223394
 20
228.9809844398251
 30
0.0
 10
895.5523130085357
 20
228.9978654077028
 30
0.0
 10
899.1987743248984
 20
232.6443267240655
 30
0.0
 10
899.1987743248984
 20
237.1424156443819
 30
0.0
  0
LINE
  5
1CB
330
78
100
AcDbEntity
  8
0
 62
    18
420
        0
370
    25
100
AcDbLine
 10
891.0320032223394
 20
228.9809844398251
 30
0.0
 11
293.2429964815938
 21
228.9809844398251
 31
0.0
  0
SPLINE
  5
1CC
330
78
100
AcDbEntity
  8
0
 62
    18
420
        0
370
    25
100
AcDbSpline
210
0.0
220
0.0
230
1.0
 70
     8
 71
     3
 72
     8
 73
     4
 74
     0
 42
0.0000000001
 43
0.0000000001
 40
0.0
 40
0.0
 40
0.0
 40
0.0
 40
1.0
 40
1.0
 40
1.0
 40
1.0
 10
285.0726510924689
 20
237.108998218175
 30
0.0
 10
285.1011377257625
 20
232.6443482559123
 30
0.0
 10
288.7475559784316
 20
228.9978869395496
 30
0.0
 10
293.2456448987481
 20
228.9978869395496
 30
0.0
  0
LINE
  5
1CD
330
78
100
AcDbEntity
  8
0
 62
    18
420
        0
370
    25
100
AcDbLine
 10
288.7556519528219
 20
238.3366579943438
 30
0.0
 11
288.7556519528219
 21
560.8742918519689
 31
0.0
  0
SPLINE
  5
1CE
330
78
100
AcDbEntity
  8
0
 62
    18
420
        0
370
    25
100
AcDbSpline
210
0.0
220
0.0
230
1.0
 70
     8
 71
     3
 72
     8
 73
     4
 74
     0
 42
0.0000000001
 43
0.0000000001
 40
0.0
 40
0.0
 40
0.0
 40
0.0
 40
1.0
 40
1.0
 40
1.0
 40
1.0
 10
294.4283246469876
 20
566.5469860779814
 30
0.0
 10
291.3186738027672
 20
566.5886717333528
 30
0.0
 10
288.7661810258988
 20
564.0361574246386
 30
0.0
 10
288.7661810258988
 20
560.8875554695871
 30
0.0
  0
LINE
  5
1CF
330
78
100
AcDbEntity
  8
0
 62
    18
420
        0
370
    25
100
AcDbLine
 10
294.4283246469876
 20
566.5469860779814
 30
0.0
 11
889.8042573187817
 21
566.5469860779814
 31
0.0
  0
SPLINE
  5
1D0
330
78
100
AcDbEntity
  8
0
 62
    18
420
        0
370
    25
100
AcDbSpline
210
0.0
220
0.0
230
1.0
 70
     8
 71
     3
 72
     8
 73
     4
 74
     0
 42
0.0000000001
 43
0.0000000001
 40
0.0
 40
0.0
 40
0.0
 40
0.0
 40
1.0
 40
1.0
 40
1.0
 40
1.0
 10
895.5193262192626
 20
560.8743349156615
 30
0.0
 10
895.5337094929154
 20
564.0362004883312
 30
0.0
 10
892.9811521205047
 20
566.5886717333528
 30
0.0
 10
889.8325932291497
 20
566.5886717333528
 30
0.0
  0
LINE
  5
1D1
330
78
100
AcDbEntity
  8
0
 62
    18
420
        0
370
    25
100
AcDbLine
 10
895.5193262192626
 20
560.8743349156615
 30
0.0
 11
895.5193262192626
 21
238.3366579943438
 31
0.0
  0
SPLINE
  5
1D2
330
78
100
AcDbEntity
  8
0
 62
    18
420
        0
370
    25
100
AcDbSpline
210
0.0
220
0.0
230
1.0
 70
     8
 71
     3
 72
     8
 73
     4
 74
     0
 42
0.0000000001
 43
0.0000000001
 40
0.0
 40
0.0
 40
0.0
 40
0.0
 40
1.0
 40
1.0
 40
1.0
 40
1.0
 10
889.8043434461706
 20
232.6216536894032
 30
0.0
 10
892.9812382478937
 20
232.6629087078391
 30
0.0
 10
895.5337094929154
 20
235.215444548401
 30
0.0
 10
895.5337094929154
 20
238.3640680352983
 30
0.0
  0
LINE
  5
1D3
330
78
100
AcDbEntity
  8
0
 62
    18
420
        0
370
    25
100
AcDbLine
 10
889.8043434461706
 20
232.6216536894032
 30
0.0
 11
294.4283246469876
 21
232.6216536894032
 31
0.0
  0
SPLINE
  5
1D4
330
78
100
AcDbEntity
  8
0
 62
    18
420
        0
370
    25
100
AcDbSpline
210
0.0
220
0.0
230
1.0
 70
     8
 71
     3
 72
     8
 73
     4
 74
     0
 42
0.0000000001
 43
0.0000000001
 40
0.0
 40
0.0
 40
0.0
 40
0.0
 40
1.0
 40
1.0
 40
1.0
 40
1.0
 10
288.7556519528219
 20
238.3366579943438
 30
0.0
 10
288.7661810258988
 20
235.215444548401
 30
0.0
 10
291.3186738027672
 20
232.6629302396858
 30
0.0
 10
294.467340353358
 20
232.6629302396858
 30
0.0
  0
LWPOLYLINE
  5
1D5
330
78
100
AcDbEntity
  8
0
100
AcDbPolyline
 90
        4
 70
     1
 43
0.0
 10
0.0
 20
0.0
 10
1188.861110813896
 20
0.0
 10
1188.861110813896
 20
840.669444234277
 10
0.0
 20
840.669444234277
  0
ENDBLK
  5
7B
330
78
100
AcDbEntity
  8
0
100
AcDbBlockEnd
  0
BLOCK
  5
1DA
330
1D8
100
AcDbEntity
  8
0
100
AcDbBlockBegin
  2
Block_1
 70
     0
 10
0.0
 20
0.0
 30
0.0
  3
Block_1
  1

  0
LINE
  5
1DC
330
1D8
100
AcDbEntity
  8
0
 62
    18
420
        0
370
    25
100
AcDbLine
 10
274.544204694626
 20
226.7591276808996
 30
0.0
 11
274.544204694626
 21
234.125107869759
 31
0.0
  0
LINE
  5
1DD
330
1D8
100
AcDbEntity
  8
0
 62
    18
420
        0
370
    25
100
AcDbLine
 10
291.0118687733539
 20
218.5041190702246
 30
0.0
 11
282.8415233842289
 21
218.5041190702246
 31
0.0
  0
SPLINE
  5
1DE
330
1D8
100
AcDbEntity
  8
0
 62
    18
420
        0
370
    25
100
AcDbSpline
210
0.0
220
0.0
230
1.0
 70
     8
 71
     3
 72
     8
 73
     4
 74
     0
 42
0.0000000001
 43
0.0000000001
 40
0.0
 40
0.0
 40
0.0
 40
0.0
 40
1.0
 40
1.0
 40
1.0
 40
1.0
 10
274.544204694626
 20
226.6502343277025
 30
0.0
 10
274.5852438608702
 20
222.1957147302746
 30
0.0
 10
278.2603252359267
 20
218.5206770604006
 30
0.0
 10
282.7936889823484
 20
218.5206770604006
 30
0.0
  0
ENDBLK
  5
1DB
330
1D8
100
AcDbEntity
  8
0
100
AcDbBlockEnd
  0
BLOCK
  5
1E1
330
1DF
100
AcDbEntity
  8
0
100
AcDbBlockBegin
  2
Block_2
 70
     0
 10
0.0
 20
0.0
 30
0.0
  3
Block_2
  1

  0
LINE
  5
1E3
330
1DF
100
AcDbEntity
  8
0
 62
    18
420
        0
370
    25
100
AcDbLine
 10
282.6550388677447
 20
580.7768270653135
 30
0.0
 11
290.0210190566045
 21
580.7768270653135
 31
0.0
  0
LINE
  5
1E4
330
1DF
100
AcDbEntity
  8
0
 62
    18
420
        0
370
    25
100
AcDbLine
 10
274.4000302570698
 20
564.3091629865859
 30
0.0
 11
274.4000302570698
 21
572.4795083757084
 31
0.0
  0
SPLINE
  5
1E5
330
1DF
100
AcDbEntity
  8
0
 62
    18
420
        0
370
    25
100
AcDbSpline
210
0.0
220
0.0
230
1.0
 70
     8
 71
     3
 72
     8
 73
     4
 74
     0
 42
0.0000000001
 43
0.0000000001
 40
0.0
 40
0.0
 40
0.0
 40
0.0
 40
1.0
 40
1.0
 40
1.0
 40
1.0
 10
282.5461455145476
 20
580.7768270653135
 30
0.0
 10
278.0916259171198
 20
580.7357878990674
 30
0.0
 10
274.4165882472457
 20
577.0607065240116
 30
0.0
 10
274.4165882472457
 20
572.5273427775895
 30
0.0
  0
ENDBLK
  5
1E2
330
1DF
100
AcDbEntity
  8
0
100
AcDbBlockEnd
  0
BLOCK
  5
1E8
330
1E6
100
AcDbEntity
  8
0
100
AcDbBlockBegin
  2
Block_3
 70
     0
 10
0.0
 20
0.0
 30
0.0
  3
Block_3
  1

  0
LINE
  5
1EA
330
1E6
100
AcDbEntity
  8
0
 62
    18
420
        0
370
    25
100
AcDbLine
 10
901.6732566677653
 20
218.3952137976982
 30
0.0
 11
894.3072764789047
 21
218.3952137976982
 31
0.0
  0
LINE
  5
1EB
330
1E6
100
AcDbEntity
  8
0
 62
    18
420
        0
370
    25
100
AcDbLine
 10
909.9282652784395
 20
234.8628778764263
 30
0.0
 11
909.9282652784395
 21
226.6925324873014
 31
0.0
  0
SPLINE
  5
1EC
330
1E6
100
AcDbEntity
  8
0
 62
    18
420
        0
370
    25
100
AcDbSpline
210
0.0
220
0.0
230
1.0
 70
     8
 71
     3
 72
     8
 73
     4
 74
     0
 42
0.0000000001
 43
0.0000000001
 40
0.0
 40
0.0
 40
0.0
 40
0.0
 40
1.0
 40
1.0
 40
1.0
 40
1.0
 10
901.7821500209619
 20
218.3952137976982
 30
0.0
 10
906.2366696183902
 20
218.4362529639427
 30
0.0
 10
909.9117072882624
 20
222.1113343389995
 30
0.0
 10
909.9117072882624
 20
226.6446980854209
 30
0.0
  0
ENDBLK
  5
1E9
330
1E6
100
AcDbEntity
  8
0
100
AcDbBlockEnd
  0
BLOCK
  5
1EF
330
1ED
100
AcDbEntity
  8
0
100
AcDbBlockBegin
  2
Block_4
 70
     0
 10
0.0
 20
0.0
 30
0.0
  3
Block_4
  1

  0
LWPOLYLINE
  5
1F1
330
1ED
100
AcDbEntity
  8
0
 62
    18
420
        0
370
    25
100
AcDbPolyline
 90
        3
 70
     0
 43
0.0
 10
1055.417204377332
 20
487.8094682648536
 10
1047.290676954273
 20
487.8094682648536
 10
1047.290676954273
 20
475.6410146640551
  0
LINE
  5
1F2
330
1ED
100
AcDbEntity
  8
0
 62
    18
420
        0
370
    25
100
AcDbLine
 10
1047.290763516278
 20
481.7252847454546
 30
0.0
 11
1051.332689694014
 21
481.7252847454546
 31
0.0
  0
LWPOLYLINE
  5
1F3
330
1ED
100
AcDbEntity
  8
0
 62
    18
420
        0
370
    25
100
AcDbPolyline
 90
        3
 70
     0
 43
0.0
 10
1059.459130555068
 20
487.8094682648536
 10
1059.459130555068
 20
475.6410146640551
 10
1067.585571416123
 20
475.6410146640551
  0
LWPOLYLINE
  5
1F4
330
1ED
100
AcDbEntity
  8
0
 62
    18
420
        0
370
    25
100
AcDbPolyline
 90
        6
 70
     0
 43
0.0
 10
1071.670086099438
 20
487.8094682648536
 10
1071.670086099438
 20
477.6832720057143
 10
1073.712256879093
 20
475.6410146640551
 10
1077.754269618837
 20
475.6410146640551
 10
1079.796526960493
 20
477.6832720057143
 10
1079.796526960493
 20
487.8094682648536
  0
LWPOLYLINE
  5
1F5
330
1ED
100
AcDbEntity
  8
0
 62
    18
420
        0
370
    25
100
AcDbPolyline
 90
        8
 70
     0
 43
0.0
 10
1083.838539700233
 20
477.6833152867145
 10
1085.880710479892
 20
475.6410579450587
 10
1089.965225163207
 20
475.6410579450587
 10
1091.964980561288
 20
477.6833152867145
 10
1083.838539700233
 20
485.8097561477691
 10
1085.880710479892
 20
487.8094682648536
 10
1089.965225163207
 20
487.8094682648536
 10
1091.964980561288
 20
485.8097561477691
  0
LINE
  5
1F6
330
1ED
100
AcDbEntity
  8
0
 62
    18
420
        0
370
    25
100
AcDbLine
 10
1096.049495244606
 20
475.6410579450587
 30
0.0
 11
1096.049495244606
 21
487.8094682648536
 31
0.0
  0
LINE
  5
1F7
330
1ED
100
AcDbEntity
  8
0
 62
    18
420
        0
370
    25
100
AcDbLine
 10
1096.049495244606
 20
481.7252847454546
 30
0.0
 11
1104.175936105662
 21
481.7252847454546
 31
0.0
  0
LINE
  5
1F8
330
1ED
100
AcDbEntity
  8
0
 62
    18
420
        0
370
    25
100
AcDbLine
 10
1104.176022667662
 20
487.8094682648536
 30
0.0
 11
1104.176022667662
 21
475.6410146640551
 31
0.0
  0
LWPOLYLINE
  5
1F9
330
1ED
100
AcDbEntity
  8
0
 62
    18
420
        0
370
    25
100
AcDbPolyline
 90
        5
 70
     0
 43
0.0
 10
1120.428904389771
 20
475.6410579450587
 10
1120.428904389771
 20
487.8094682648536
 10
1124.513332511086
 20
479.6829841227952
 10
1128.555345250826
 20
487.8094682648536
 10
1128.555345250826
 20
475.6410579450587
  0
LWPOLYLINE
  5
1FA
330
1ED
100
AcDbEntity
  8
0
 62
    18
420
        0
370
    25
100
AcDbPolyline
 90
        4
 70
     1
 43
0.0
 10
1132.639859934141
 20
475.6410146640551
 10
1140.766300795196
 20
475.6410146640551
 10
1140.766300795196
 20
487.8094682648536
 10
1132.639859934141
 20
487.8094682648536
  0
LWPOLYLINE
  5
1FB
330
1ED
100
AcDbEntity
  8
0
 62
    18
420
        0
370
    25
100
AcDbPolyline
 90
        6
 70
     0
 43
0.0
 10
1144.80831353494
 20
487.8094682648536
 10
1144.80831353494
 20
477.6832720057143
 10
1146.850484314591
 20
475.6410146640551
 10
1150.93499899791
 20
475.6410146640551
 10
1152.934754395991
 20
477.6832720057143
 10
1152.934754395991
 20
487.8094682648536
  0
LWPOLYLINE
  5
1FC
330
1ED
100
AcDbEntity
  8
0
 62
    18
420
        0
370
    25
100
AcDbPolyline
 90
        4
 70
     0
 43
0.0
 10
1157.019355641313
 20
475.6410579450587
 10
1157.019355641313
 20
487.8094682648536
 10
1165.145796502365
 20
475.6410579450587
 10
1165.145796502365
 20
487.8094682648536
  0
LINE
  5
1FD
330
1ED
100
AcDbEntity
  8
0
 62
    18
420
        0
370
    25
100
AcDbLine
 10
1173.27223736342
 20
475.6410579450587
 30
0.0
 11
1173.27223736342
 21
487.8094682648536
 31
0.0
  0
LINE
  5
1FE
330
1ED
100
AcDbEntity
  8
0
 62
    18
420
        0
370
    25
100
AcDbLine
 10
1169.187722680104
 20
487.8094682648536
 30
0.0
 11
1177.356665484734
 21
487.8094682648536
 31
0.0
  0
LWPOLYLINE
  5
1FF
330
1ED
100
AcDbEntity
  8
0
 62
    18
420
        0
370
    25
100
AcDbPolyline
 90
        7
 70
     0
 43
0.0
 10
1047.290763516278
 20
455.3036182586303
 10
1047.290763516278
 20
467.5145738030001
 10
1053.374947035673
 20
467.5145738030001
 10
1055.417204377332
 20
465.4723164613443
 10
1055.417204377332
 20
463.4300591196854
 10
1053.374947035673
 20
461.4303470026045
 10
1047.290763516278
 20
461.4303470026045
  0
LINE
  5
200
330
1ED
100
AcDbEntity
  8
0
 62
    18
420
        0
370
    25
100
AcDbLine
 10
1049.290432352358
 20
461.4303902836046
 30
0.0
 11
1055.417117815328
 21
455.3036182586303
 31
0.0
  0
LWPOLYLINE
  5
201
330
1ED
100
AcDbEntity
  8
0
 62
    18
420
        0
370
    25
100
AcDbPolyline
 90
        4
 70
     0
 43
0.0
 10
1067.585657978127
 20
455.3036182586303
 10
1059.459130555068
 20
455.3036182586303
 10
1059.459130555068
 20
467.5145738030001
 10
1067.585657978127
 20
467.5145738030001
  0
LINE
  5
202
330
1ED
100
AcDbEntity
  8
0
 62
    18
420
        0
370
    25
100
AcDbLine
 10
1059.459130555068
 20
461.4303902836046
 30
0.0
 11
1063.543558676383
 21
461.4303902836046
 31
0.0
  0
LWPOLYLINE
  5
203
330
1ED
100
AcDbEntity
  8
0
 62
    18
420
        0
370
    25
100
AcDbPolyline
 90
        9
 70
     0
 43
0.0
 10
1071.670086099438
 20
455.3036182586303
 10
1077.754269618837
 20
455.3036182586303
 10
1079.796526960493
 20
457.3458323192895
 10
1079.796526960493
 20
459.3880896609452
 10
1077.754269618837
 20
461.4303470026045
 10
1079.796526960493
 20
463.4300591196854
 10
1079.796526960493
 20
465.4723164613443
 10
1077.754269618837
 20
467.5145738030001
 10
1071.670086099438
 20
467.5145738030001
  0
LINE
  5
204
330
1ED
100
AcDbEntity
  8
0
 62
    18
420
        0
370
    25
100
AcDbLine
 10
1073.712343441098
 20
467.5145738030001
 30
0.0
 11
1073.712343441098
 21
455.3035749776302
 31
0.0
  0
LINE
  5
205
330
1ED
100
AcDbEntity
  8
0
 62
    18
420
        0
370
    25
100
AcDbLine
 10
1073.712343441098
 20
461.4303902836046
 30
0.0
 11
1077.754269618837
 21
461.4303902836046
 31
0.0
  0
LWPOLYLINE
  5
206
330
1ED
100
AcDbEntity
  8
0
 62
    18
420
        0
370
    25
100
AcDbPolyline
 90
        5
 70
     0
 43
0.0
 10
1083.838539700233
 20
455.3036182586303
 10
1083.838539700233
 20
459.3880896609452
 10
1087.922967821548
 20
467.5145738030001
 10
1091.964980561288
 20
459.3880896609452
 10
1091.964980561288
 20
455.3036182586303
  0
LINE
  5
207
330
1ED
100
AcDbEntity
  8
0
 62
    18
420
        0
370
    25
100
AcDbLine
 10
1083.838539700233
 20
459.3881329419489
 30
0.0
 11
1091.964980561288
 21
459.3881329419489
 31
0.0
  0
LINE
  5
208
330
1ED
100
AcDbEntity
  8
0
 62
    18
420
        0
370
    25
100
AcDbLine
 10
1100.091507984347
 20
455.3036182586303
 30
0.0
 11
1100.091507984347
 21
467.5145738030001
 31
0.0
  0
LINE
  5
209
330
1ED
100
AcDbEntity
  8
0
 62
    18
420
        0
370
    25
100
AcDbLine
 10
1096.049495244606
 20
467.5145738030001
 30
0.0
 11
1104.175936105662
 21
467.5145738030001
 31
0.0
  0
LWPOLYLINE
  5
20A
330
1ED
100
AcDbEntity
  8
0
 62
    18
420
        0
370
    25
100
AcDbPolyline
 90
        4
 70
     0
 43
0.0
 10
1116.386978212035
 20
455.3036182586303
 10
1108.260450788976
 20
455.3036182586303
 10
1108.260450788976
 20
467.5145738030001
 10
1116.386978212035
 20
467.5145738030001
  0
LINE
  5
20B
330
1ED
100
AcDbEntity
  8
0
 62
    18
420
        0
370
    25
100
AcDbLine
 10
1108.26053735098
 20
461.4303902836046
 30
0.0
 11
1112.302463528717
 21
461.4303902836046
 31
0.0
  0
LINE
  5
20C
330
1ED
100
AcDbEntity
  8
0
 62
    18
420
        0
370
    25
100
AcDbLine
 10
1132.639946496145
 20
455.3036182586303
 30
0.0
 11
1136.681872673885
 21
455.3036182586303
 31
0.0
  0
LWPOLYLINE
  5
20D
330
1ED
100
AcDbEntity
  8
0
 62
    18
420
        0
370
    25
100
AcDbPolyline
 90
        3
 70
     0
 43
0.0
 10
1134.639615332226
 20
455.3036182586303
 10
1134.639615332226
 20
467.5145738030001
 10
1132.639859934141
 20
465.4723164613443
  0
LINE
  5
20E
330
1ED
100
AcDbEntity
  8
0
 62
    18
420
        0
370
    25
100
AcDbLine
 10
1140.7663873572
 20
455.3036182586303
 30
0.0
 11
1140.7663873572
 21
457.3458323192895
 31
0.0
  0
LWPOLYLINE
  5
20F
330
1ED
100
AcDbEntity
  8
0
 62
    18
420
        0
370
    25
100
AcDbPolyline
 90
        5
 70
     0
 43
0.0
 10
1154.977098299655
 20
455.3036182586303
 10
1154.977098299655
 20
467.5145738030001
 10
1159.061526420965
 20
459.3880896609452
 10
1163.10353916071
 20
467.5145738030001
 10
1163.10353916071
 20
455.3036182586303
  0
LWPOLYLINE
  5
210
330
1ED
100
AcDbEntity
  8
0
 62
    18
420
        0
370
    25
100
AcDbPolyline
 90
        5
 70
     0
 43
0.0
 10
1167.188053844024
 20
455.3036182586303
 10
1167.188053844024
 20
467.5145738030001
 10
1171.229980021761
 20
459.3880896609452
 10
1175.314494705078
 20
467.5145738030001
 10
1175.314494705078
 20
455.3036182586303
  0
LWPOLYLINE
  5
211
330
1ED
100
AcDbEntity
  8
0
 62
    18
420
        0
370
    25
100
AcDbPolyline
 90
        9
 70
     0
 43
0.0
 10
1143.507004359465
 20
465.3871868812301
 10
1145.511263823609
 20
467.355693705891
 10
1149.483957296441
 20
467.355693705711
 10
1151.488216760403
 20
465.387186880874
 10
1151.488216760224
 20
461.3786679527708
 10
1149.483957296081
 20
459.3744084888078
 10
1143.507004359197
 20
459.3744084890757
 10
1143.507004359017
 20
455.4016422002789
 10
1151.488216759956
 20
455.4016421999192
  0
ENDBLK
  5
1F0
330
1ED
100
AcDbEntity
  8
0
100
AcDbBlockEnd
  0
ENDSEC
  0
SECTION
  2
ENTITIES
  0
INSERT
  5
79
330
70
100
AcDbEntity
  8
0
100
AcDbBlockReference
  2
Block_0
 10
0.0
 20
0.0
 30
0.0
  0
LWPOLYLINE
  5
1D6
330
70
100
AcDbEntity
  8
0
 62
    18
420
        0
370
    25
100
AcDbPolyline
 90
        3
 70
     0
 43
0.0
 10
213.5819703973471
 20
178.6980596911373
 10
213.5819703973471
 20
193.2099427205504
 10
211.1464038339438
 20
190.7743890612213
  0
LWPOLYLINE
  5
1D7
330
70
100
AcDbEntity
  8
0
 62
    18
420
        0
370
    25
100
AcDbPolyline
 90
        8
 70
     1
 43
0.0
 10
223.2734978315682
 20
178.6980596911373
 10
220.8379312681649
 20
181.0828745310741
 10
220.8379312681649
 20
190.7743890612213
 10
223.2734978315682
 20
193.2099427205504
 10
225.658273959283
 20
193.2099427205504
 10
228.0938405226863
 20
190.7743890612213
 10
228.0938405226863
 20
181.0828745310741
 10
225.658273959283
 20
178.6980596911373
  0
INSERT
  5
1D9
330
70
100
AcDbEntity
  8
0
100
AcDbBlockReference
  2
Block_1
 10
0.0
 20
0.0
 30
0.0
  0
INSERT
  5
1E0
330
70
100
AcDbEntity
  8
0
100
AcDbBlockReference
  2
Block_2
 10
0.0
 20
0.0
 30
0.0
  0
INSERT
  5
1E7
330
70
100
AcDbEntity
  8
0
100
AcDbBlockReference
  2
Block_3
 10
0.0
 20
0.0
 30
0.0
  0
INSERT
  5
1EE
330
70
100
AcDbEntity
  8
0
100
AcDbBlockReference
  2
Block_4
 10
0.0
 20
0.0
 30
0.0
  0
ENDSEC
  0
SECTION
  2
OBJECTS
  0
DICTIONARY
  5
C
330
0
100
AcDbDictionary
281
     1
  3
ACAD_COLOR
350
63
  3
ACAD_DETAILVIEWSTYLE
350
6A
  3
ACAD_GROUP
350
D
  3
ACAD_LAYOUT
350
62
  3
ACAD_MATERIAL
350
10
  3
ACAD_MLEADERSTYLE
350
66
  3
ACAD_MLINESTYLE
350
5F
  3
ACAD_PLOTSETTINGS
350
61
  3
ACAD_PLOTSTYLENAME
350
E
  3
ACAD_SCALELIST
350
42
  3
ACAD_SECTIONVIEWSTYLE
350
68
  3
ACAD_TABLESTYLE
350
64
  3
ACAD_VISUALSTYLE
350
29
  3
ACDB_RECOMPOSE_DATA
350
21A
  3
AcDbVariableDictionary
350
212
  0
DICTIONARY
  5
63
102
{ACAD_REACTORS
330
C
102
}
330
C
100
AcDbDictionary
281
     1
  0
DICTIONARY
  5
6A
102
{ACAD_REACTORS
330
C
102
}
330
C
100
AcDbDictionary
281
     1
  3
Imperial24
350
6B
  0
DICTIONARY
  5
D
102
{ACAD_REACTORS
330
C
102
}
330
C
100
AcDbDictionary
281
     1
  0
DICTIONARY
  5
62
102
{ACAD_REACTORS
330
C
102
}
330
C
100
AcDbDictionary
281
     1
  3
Layout1
350
6F
  3
Layout2
350
77
  3
Model
350
73
  0
DICTIONARY
  5
10
102
{ACAD_REACTORS
330
C
102
}
330
C
100
AcDbDictionary
281
     1
  3
ByBlock
350
19
  3
ByLayer
350
11
  3
Global
350
21
  0
DICTIONARY
  5
66
102
{ACAD_REACTORS
330
C
102
}
330
C
100
AcDbDictionary
281
     1
  3
Standard
350
67
  0
DICTIONARY
  5
5F
102
{ACAD_REACTORS
330
C
102
}
330
C
100
AcDbDictionary
281
     1
  3
Standard
350
60
  0
DICTIONARY
  5
61
102
{ACAD_REACTORS
330
C
102
}
330
C
100
AcDbDictionary
281
     1
  0
ACDBDICTIONARYWDFLT
  5
E
102
{ACAD_REACTORS
330
C
102
}
330
C
100
AcDbDictionary
281
     1
  3
Normal
350
F
100
AcDbDictionaryWithDefault
340
F
  0
DICTIONARY
  5
42
102
{ACAD_REACTORS
330
C
102
}
330
C
100
AcDbDictionary
281
     1
  3
A0
350
43
  3
A1
350
44
  3
A2
350
45
  3
A3
350
46
  3
A4
350
47
  3
A5
350
48
  3
A6
350
49
  3
A7
350
4A
  3
A8
350
4B
  3
A9
350
4C
  3
B0
350
4D
  3
B1
350
4E
  3
B2
350
4F
  3
B3
350
50
  3
B4
350
51
  3
B5
350
52
  3
B6
350
53
  0
DICTIONARY
  5
68
102
{ACAD_REACTORS
330
C
102
}
330
C
100
AcDbDictionary
281
     1
  3
Imperial24
350
69
  0
DICTIONARY
  5
64
102
{ACAD_REACTORS
330
C
102
}
330
C
100
AcDbDictionary
281
     1
  3
Standard
350
65
  0
DICTIONARY
  5
29
102
{ACAD_REACTORS
330
C
102
}
330
C
100
AcDbDictionary
281
     1
  3
2dWireframe
350
2F
  3
Basic
350
2E
  3
Brighten
350
35
  3
ColorChange
350
39
  3
Conceptual
350
32
  3
Dim
350
34
  3
EdgeColorOff
350
41
  3
Facepattern
350
38
  3
Flat
350
2A
  3
FlatWithEdges
350
2B
  3
Gouraud
350
2C
  3
GouraudWithEdges
350
2D
  3
Hidden
350
31
  3
JitterOff
350
3F
  3
Linepattern
350
37
  3
OverhangOff
350
40
  3
Realistic
350
33
  3
Shaded
350
3E
  3
Shaded with edges
350
3D
  3
Shades of Gray
350
3A
  3
Sketchy
350
3B
  3
Thicken
350
36
  3
Wireframe
350
30
  3
X-Ray
350
3C
  0
XRECORD
  5
21A
102
{ACAD_REACTORS
330
C
102
}
330
C
100
AcDbXrecord
280
     1
 90
        1
330
65
  0
DICTIONARY
  5
212
102
{ACAD_REACTORS
330
C
102
}
330
C
100
AcDbDictionary
281
     1
  3
CANNOSCALE
350
217
  3
CMLEADERSTYLE
350
214
  3
CTABLESTYLE
350
213
  3
CVIEWDETAILSTYLE
350
215
  3
CVIEWSECTIONSTYLE
350
216
  0
ACDBDETAILVIEWSTYLE
  5
6B
102
{ACAD_REACTORS
330
6A
102
}
330
6A
100
AcDbModelDocViewStyle
 70
     0
  3
Imperial24
290
     1
300
Imperial24
 90
        0
100
AcDbDetailViewStyle
 70
     0
 71
     0
 90
        3
 71
     1
340
55
 62
   256
 40
0.24
340
0
 62
   256
 40
0.24
300

 40
0.36
280
     3
 71
     2
340
5D
 90
       25
 62
   256
 71
     3
340
55
 62
   256
 40
0.24
 90
        1
 40
0.75
 90
        1
300
%<\AcVar ViewType \f "%tc1">% %<\AcVar ViewDetailId>%\PSCALE %<\AcVar ViewScale \f "%sn">%
 71
     4
340
5D
 90
       25
 62
   256
340
5D
 90
       25
 62
   256
280
     0
  0
LAYOUT
  5
6F
102
{ACAD_REACTORS
330
62
102
}
330
62
100
AcDbPlotSettings
  1

  2

  4

  6

 40
0.0
 41
0.0
 42
0.0
 43
0.0
 44
0.0
 45
0.0
 46
0.0
 47
0.0
 48
0.0
 49
0.0
140
0.0
141
0.0
142
1.0
143
1.0
 70
   688
 72
     0
 73
     0
 74
     5
  7

 75
    16
147
1.0
 76
     0
 77
     2
 78
   300
148
0.0
149
0.0
100
AcDbLayout
  1
Layout1
 70
     1
 71
     1
 10
0.0
 20
0.0
 11
12.0
 21
9.0
 12
0.0
 22
0.0
 32
0.0
 14
0.0
 24
0.0
 34
0.0
 15
0.0
 25
0.0
 35
0.0
146
0.0
 13
0.0
 23
0.0
 33
0.0
 16
1.0
 26
0.0
 36
0.0
 17
0.0
 27
1.0
 37
0.0
 76
     0
330
6C
  0
LAYOUT
  5
77
102
{ACAD_REACTORS
330
62
102
}
330
62
100
AcDbPlotSettings
  1

  2

  4

  6

 40
0.0
 41
0.0
 42
0.0
 43
0.0
 44
0.0
 45
0.0
 46
0.0
 47
0.0
 48
0.0
 49
0.0
140
0.0
141
0.0
142
1.0
143
1.0
 70
   688
 72
     0
 73
     0
 74
     5
  7

 75
    16
147
1.0
 76
     0
 77
     2
 78
   300
148
0.0
149
0.0
100
AcDbLayout
  1
Layout2
 70
     1
 71
     2
 10
0.0
 20
0.0
 11
12.0
 21
9.0
 12
0.0
 22
0.0
 32
0.0
 14
0.0
 24
0.0
 34
0.0
 15
0.0
 25
0.0
 35
0.0
146
0.0
 13
0.0
 23
0.0
 33
0.0
 16
1.0
 26
0.0
 36
0.0
 17
0.0
 27
1.0
 37
0.0
 76
     0
330
74
  0
LAYOUT
  5
73
102
{ACAD_REACTORS
330
62
102
}
330
62
100
AcDbPlotSettings
  1

  2

  4

  6

 40
0.0
 41
0.0
 42
0.0
 43
0.0
 44
0.0
 45
0.0
 46
0.0
 47
0.0
 48
0.0
 49
0.0
140
0.0
141
0.0
142
1.0
143
1.0
 70
  1712
 72
     0
 73
     0
 74
     0
  7

 75
     0
147
1.0
 76
     0
 77
     2
 78
   300
148
0.0
149
0.0
100
AcDbLayout
  1
Model
 70
     1
 71
     0
 10
0.0
 20
0.0
 11
12.0
 21
9.0
 12
0.0
 22
0.0
 32
0.0
 14
0.0
 24
0.0
 34
0.0
 15
0.0
 25
0.0
 35
0.0
146
0.0
 13
0.0
 23
0.0
 33
0.0
 16
1.0
 26
0.0
 36
0.0
 17
0.0
 27
1.0
 37
0.0
 76
     0
330
70
  0
MATERIAL
  5
19
102
{ACAD_XDICTIONARY
360
1A
102
}
102
{ACAD_REACTORS
330
10
102
}
330
10
100
AcDbMaterial
  1
ByBlock
 72
     0
 43
0.0208333333333333
 43
0.0
 43
0.0
 43
0.0
 43
0.0
 43
0.0208333333333333
 43
0.0
 43
0.0
 43
0.0
 43
0.0
 43
1.0
 43
0.0
 43
0.0
 43
0.0
 43
0.0
 43
1.0
 77
     0
 47
0.0208333333333333
 47
0.0
 47
0.0
 47
0.0
 47
0.0
 47
0.0208333333333333
 47
0.0
 47
0.0
 47
0.0
 47
0.0
 47
1.0
 47
0.0
 47
0.0
 47
0.0
 47
0.0
 47
1.0
171
     0
 49
0.0208333333333333
 49
0.0
 49
0.0
 49
0.0
 49
0.0
 49
0.0208333333333333
 49
0.0
 49
0.0
 49
0.0
 49
0.0
 49
1.0
 49
0.0
 49
0.0
 49
0.0
 49
0.0
 49
1.0
175
     0
142
0.0208333333333333
142
0.0
142
0.0
142
0.0
142
0.0
142
0.0208333333333333
142
0.0
142
0.0
142
0.0
142
0.0
142
1.0
142
0.0
142
0.0
142
0.0
142
0.0
142
1.0
179
     0
144
0.0208333333333333
144
0.0
144
0.0
144
0.0
144
0.0
144
0.0208333333333333
144
0.0
144
0.0
144
0.0
144
0.0
144
1.0
144
0.0
144
0.0
144
0.0
144
0.0
144
1.0
147
0.0208333333333333
147
0.0
147
0.0
147
0.0
147
0.0
147
0.0208333333333333
147
0.0
147
0.0
147
0.0
147
0.0
147
1.0
147
0.0
147
0.0
147
0.0
147
0.0
147
1.0
  0
MATERIAL
  5
11
102
{ACAD_XDICTIONARY
360
12
102
}
102
{ACAD_REACTORS
330
10
102
}
330
10
100
AcDbMaterial
  1
ByLayer
 72
     0
 43
0.0208333333333333
 43
0.0
 43
0.0
 43
0.0
 43
0.0
 43
0.0208333333333333
 43
0.0
 43
0.0
 43
0.0
 43
0.0
 43
1.0
 43
0.0
 43
0.0
 43
0.0
 43
0.0
 43
1.0
 77
     0
 47
0.0208333333333333
 47
0.0
 47
0.0
 47
0.0
 47
0.0
 47
0.0208333333333333
 47
0.0
 47
0.0
 47
0.0
 47
0.0
 47
1.0
 47
0.0
 47
0.0
 47
0.0
 47
0.0
 47
1.0
171
     0
 49
0.0208333333333333
 49
0.0
 49
0.0
 49
0.0
 49
0.0
 49
0.0208333333333333
 49
0.0
 49
0.0
 49
0.0
 49
0.0
 49
1.0
 49
0.0
 49
0.0
 49
0.0
 49
0.0
 49
1.0
175
     0
142
0.0208333333333333
142
0.0
142
0.0
142
0.0
142
0.0
142
0.0208333333333333
142
0.0
142
0.0
142
0.0
142
0.0
142
1.0
142
0.0
142
0.0
142
0.0
142
0.0
142
1.0
179
     0
144
0.0208333333333333
144
0.0
144
0.0
144
0.0
144
0.0
144
0.0208333333333333
144
0.0
144
0.0
144
0.0
144
0.0
144
1.0
144
0.0
144
0.0
144
0.0
144
0.0
144
1.0
147
0.0208333333333333
147
0.0
147
0.0
147
0.0
147
0.0
147
0.0208333333333333
147
0.0
147
0.0
147
0.0
147
0.0
147
1.0
147
0.0
147
0.0
147
0.0
147
0.0
147
1.0
  0
MATERIAL
  5
21
102
{ACAD_XDICTIONARY
360
22
102
}
102
{ACAD_REACTORS
330
10
102
}
330
10
100
AcDbMaterial
  1
Global
 72
     0
 43
0.0208333333333333
 43
0.0
 43
0.0
 43
0.0
 43
0.0
 43
0.0208333333333333
 43
0.0
 43
0.0
 43
0.0
 43
0.0
 43
1.0
 43
0.0
 43
0.0
 43
0.0
 43
0.0
 43
1.0
 77
     0
 47
0.0208333333333333
 47
0.0
 47
0.0
 47
0.0
 47
0.0
 47
0.0208333333333333
 47
0.0
 47
0.0
 47
0.0
 47
0.0
 47
1.0
 47
0.0
 47
0.0
 47
0.0
 47
0.0
 47
1.0
171
     0
 49
0.0208333333333333
 49
0.0
 49
0.0
 49
0.0
 49
0.0
 49
0.0208333333333333
 49
0.0
 49
0.0
 49
0.0
 49
0.0
 49
1.0
 49
0.0
 49
0.0
 49
0.0
 49
0.0
 49
1.0
175
     0
142
0.0208333333333333
142
0.0
142
0.0
142
0.0
142
0.0
142
0.0208333333333333
142
0.0
142
0.0
142
0.0
142
0.0
142
1.0
142
0.0
142
0.0
142
0.0
142
0.0
142
1.0
179
     0
144
0.0208333333333333
144
0.0
144
0.0
144
0.0
144
0.0
144
0.0208333333333333
144
0.0
144
0.0
144
0.0
144
0.0
144
1.0
144
0.0
144
0.0
144
0.0
144
0.0
144
1.0
147
0.0208333333333333
147
0.0
147
0.0
147
0.0
147
0.0
147
0.0208333333333333
147
0.0
147
0.0
147
0.0
147
0.0
147
1.0
147
0.0
147
0.0
147
0.0
147
0.0
147
1.0
  0
MLEADERSTYLE
  5
67
102
{ACAD_REACTORS
330
66
102
}
330
66
100
AcDbMLeaderStyle
179
     2
170
     2
171
     1
172
     0
 90
        2
 40
0.0
 41
0.0
173
     1
 91
-1056964608
340
5B
 92
       -2
290
     1
 42
0.09
291
     1
 43
0.36
  3
Standard
 44
0.18
300

342
55
174
     1
178
     6
175
     1
176
     0
 93
-1056964608
 45
0.18
292
     0
297
     0
 46
0.18
 94
-1056964608
 47
1.0
 49
1.0
140
1.0
293
     1
141
0.0
294
     1
177
     0
142
1.0
295
     1
296
     0
143
0.125
271
     0
272
     9
273
     9
298
     1
  0
MLINESTYLE
  5
60
102
{ACAD_REACTORS
330
5F
102
}
330
5F
100
AcDbMlineStyle
  2
STANDARD
 70
     0
  3

 62
   256
 51
90.0
 52
90.0
 71
     2
 49
0.5
 62
   256
  6
BYLAYER
 49
-0.5
 62
   256
  6
BYLAYER
  0
ACDBPLACEHOLDER
  5
F
102
{ACAD_REACTORS
330
E
102
}
330
E
  0
SCALE
  5
43
102
{ACAD_REACTORS
330
42
102
}
330
42
100
AcDbScale
 70
     0
300
1:1
140
1.0
141
1.0
290
     1
  0
SCALE
  5
44
102
{ACAD_REACTORS
330
42
102
}
330
42
100
AcDbScale
 70
     0
300
1/128" = 1'-0"
140
0.0078125
141
12.0
290
     0
  0
SCALE
  5
45
102
{ACAD_REACTORS
330
42
102
}
330
42
100
AcDbScale
 70
     0
300
1/64" = 1'-0"
140
0.015625
141
12.0
290
     0
  0
SCALE
  5
46
102
{ACAD_REACTORS
330
42
102
}
330
42
100
AcDbScale
 70
     0
300
1/32" = 1'-0"
140
0.03125
141
12.0
290
     0
  0
SCALE
  5
47
102
{ACAD_REACTORS
330
42
102
}
330
42
100
AcDbScale
 70
     0
300
1/16" = 1'-0"
140
0.0625
141
12.0
290
     0
  0
SCALE
  5
48
102
{ACAD_REACTORS
330
42
102
}
330
42
100
AcDbScale
 70
     0
300
3/32" = 1'-0"
140
0.09375
141
12.0
290
     0
  0
SCALE
  5
49
102
{ACAD_REACTORS
330
42
102
}
330
42
100
AcDbScale
 70
     0
300
1/8" = 1'-0"
140
0.125
141
12.0
290
     0
  0
SCALE
  5
4A
102
{ACAD_REACTORS
330
42
102
}
330
42
100
AcDbScale
 70
     0
300
3/16" = 1'-0"
140
0.1875
141
12.0
290
     0
  0
SCALE
  5
4B
102
{ACAD_REACTORS
330
42
102
}
330
42
100
AcDbScale
 70
     0
300
1/4" = 1'-0"
140
0.25
141
12.0
290
     0
  0
SCALE
  5
4C
102
{ACAD_REACTORS
330
42
102
}
330
42
100
AcDbScale
 70
     0
300
3/8" = 1'-0"
140
0.375
141
12.0
290
     0
  0
SCALE
  5
4D
102
{ACAD_REACTORS
330
42
102
}
330
42
100
AcDbScale
 70
     0
300
1/2" = 1'-0"
140
0.5
141
12.0
290
     0
  0
SCALE
  5
4E
102
{ACAD_REACTORS
330
42
102
}
330
42
100
AcDbScale
 70
     0
300
3/4" = 1'-0"
140
0.75
141
12.0
290
     0
  0
SCALE
  5
4F
102
{ACAD_REACTORS
330
42
102
}
330
42
100
AcDbScale
 70
     0
300
1" = 1'-0"
140
1.0
141
12.0
290
     0
  0
SCALE
  5
50
102
{ACAD_REACTORS
330
42
102
}
330
42
100
AcDbScale
 70
     0
300
1-1/2" = 1'-0"
140
1.5
141
12.0
290
     0
  0
SCALE
  5
51
102
{ACAD_REACTORS
330
42
102
}
330
42
100
AcDbScale
 70
     0
300
3" = 1'-0"
140
3.0
141
12.0
290
     0
  0
SCALE
  5
52
102
{ACAD_REACTORS
330
42
102
}
330
42
100
AcDbScale
 70
     0
300
6" = 1'-0"
140
6.0
141
12.0
290
     0
  0
SCALE
  5
53
102
{ACAD_REACTORS
330
42
102
}
330
42
100
AcDbScale
 70
     0
300
1'-0" = 1'-0"
140
12.0
141
12.0
290
     0
  0
ACDBSECTIONVIEWSTYLE
  5
69
102
{ACAD_REACTORS
330
68
102
}
330
68
100
AcDbModelDocViewStyle
 70
     0
  3
Imperial24
290
     1
300
Imperial24
 90
        0
100
AcDbSectionViewStyle
 70
     0
 71
     0
 90
       78
 71
     1
340
55
 62
   256
 40
0.24
340
0
340
0
 62
   256
 40
0.24
300
I, O, Q, S, X, Z
 40
0.48
 90
        3
 40
0.18
 90
        1
 71
     2
340
5D
 90
       25
 62
   256
340
5D
 90
       50
 62
   256
 40
0.24
 40
0.0
 40
0.24
 71
     3
340
55
 62
   256
 40
0.24
 90
        1
 40
0.75
 90
        1
300
%<\AcVar ViewType \f "%tc1">% %<\AcVar ViewSectionStartId>%-%<\AcVar ViewSectionEndId>%\PSCALE %<\AcVar ViewScale \f "%sn">%
 71
     4
 62
   256
 62
   257
300
ANSI31
 40
1.0
 90
        0
290
     0
290
     0
 90
        6
 40
0.0
 40
1.570796326794896
 40
0.2617993877991494
 40
1.308996938995747
 40
-0.2617993877991494
 40
1.832595714594046
  0
TABLESTYLE
  5
65
102
{ACAD_XDICTIONARY
360
218
102
}
102
{ACAD_REACTORS
330
64
102
}
330
64
100
AcDbTableStyle
280
     0
  3
Standard
 70
     0
 71
     0
 40
0.06
 41
0.06
280
     0
281
     0
  7
Standard
140
0.18
170
     2
 62
     0
 63
     7
283
     0
 90
      512
 91
        0
  1

274
    -2
284
     1
 64
     0
275
    -2
285
     1
 65
     0
276
    -2
286
     1
 66
     0
277
    -2
287
     1
 67
     0
278
    -2
288
     1
 68
     0
279
    -2
289
     1
 69
     0
  7
Standard
140
0.25
170
     5
 62
     0
 63
     7
283
     0
 90
      512
 91
        0
  1

274
    -2
284
     1
 64
     0
275
    -2
285
     1
 65
     0
276
    -2
286
     1
 66
     0
277
    -2
287
     1
 67
     0
278
    -2
288
     1
 68
     0
279
    -2
289
     1
 69
     0
  7
Standard
140
0.18
170
     5
 62
     0
 63
     7
283
     0
 90
      512
 91
        0
  1

274
    -2
284
     1
 64
     0
275
    -2
285
     1
 65
     0
276
    -2
286
     1
 66
     0
277
    -2
287
     1
 67
     0
278
    -2
288
     1
 68
     0
279
    -2
289
     1
 69
     0
  0
VISUALSTYLE
  5
2F
102
{ACAD_REACTORS
330
29
102
}
330
29
100
AcDbVisualStyle
  2
2dWireframe
 70
     4
177
     3
291
     0
 70
    58
 90
        0
176
     1
 90
        2
176
     1
 90
        0
176
     1
 90
        0
176
     1
 40
0.6
176
     1
 40
30.0
176
     1
 62
     7
420
 16777215
176
     1
 90
        1
176
     1
 90
        4
176
     1
 62
     7
176
     1
 62
   257
176
     1
 90
        1
176
     1
 90
        1
176
     1
 40
1.0
176
     1
 90
        0
176
     1
 62
   257
176
     1
 40
1.0
176
     1
 90
        1
176
     1
 90
        6
176
     1
 90
        2
176
     1
 62
     7
176
     1
 90
        5
176
     1
 90
        0
176
     1
 90
        0
176
     1
290
     0
176
     1
 90
        1
176
     1
 40
0.0
176
     1
 90
        0
176
     1
290
     1
176
     1
290
     1
176
     1
290
     0
176
     1
290
     0
176
     1
290
     0
176
     1
290
     0
176
     1
290
     0
176
     1
290
     0
176
     1
290
     0
176
     1
 90
       50
176
     1
 40
0.0
176
     1
 40
1.0
176
     1
 90
        0
176
     1
 62
    18
420
        0
176
     1
 90
       50
176
     1
 90
        3
176
     1
 62
     5
420
      255
176
     1
290
     0
176
     1
 90
       50
176
     1
 90
       50
176
     1
 90
       50
176
     1
290
     0
176
     1
 90
       50
176
     1
 62
   256
176
     0
 40
1.0
176
     0
 90
        2
176
     1
  1
strokes_ogs.tif
176
     1
290
     0
176
     1
 40
1.0
176
     1
 40
1.0
176
     1
  0
VISUALSTYLE
  5
2E
102
{ACAD_REACTORS
330
29
102
}
330
29
100
AcDbVisualStyle
  2
Basic
 70
     7
177
     3
291
     1
 70
    58
 90
        1
176
     1
 90
        0
176
     1
 90
        1
176
     1
 90
        0
176
     1
 40
0.6
176
     1
 40
30.0
176
     1
 62
     7
420
 16777215
176
     1
 90
        0
176
     1
 90
        4
176
     1
 62
     7
176
     1
 62
   257
176
     1
 90
        1
176
     1
 90
        1
176
     1
 40
1.0
176
     1
 90
        8
176
     1
 62
     7
176
     1
 40
1.0
176
     1
 90
        1
176
     1
 90
        6
176
     1
 90
        2
176
     1
 62
     7
176
     1
 90
        5
176
     1
 90
        0
176
     1
 90
        0
176
     1
290
     0
176
     1
 90
        1
176
     1
 40
0.0
176
     1
 90
        0
176
     1
290
     0
176
     1
290
     1
176
     1
290
     1
176
     1
290
     0
176
     1
290
     0
176
     1
290
     0
176
     1
290
     0
176
     1
290
     0
176
     1
290
     0
176
     1
 90
       50
176
     1
 40
0.0
176
     1
 40
1.0
176
     1
 90
        0
176
     1
 62
    18
420
        0
176
     1
 90
       50
176
     1
 90
        3
176
     1
 62
     5
420
      255
176
     1
290
     0
176
     1
 90
       50
176
     1
 90
       50
176
     1
 90
       50
176
     1
290
     0
176
     1
 90
       50
176
     1
 62
   256
176
     0
 40
1.0
176
     0
 90
        2
176
     1
  1
strokes_ogs.tif
176
     1
290
     0
176
     1
 40
1.0
176
     1
 40
1.0
176
     1
  0
VISUALSTYLE
  5
35
102
{ACAD_REACTORS
330
29
102
}
330
29
100
AcDbVisualStyle
  2
Brighten
 70
    12
177
     3
291
     1
 70
    58
 90
        2
176
     1
 90
        2
176
     1
 90
        0
176
     1
 90
        0
176
     1
 40
0.6
176
     1
 40
30.0
176
     1
 62
     7
420
 16777215
176
     1
 90
        1
176
     1
 90
        4
176
     1
 62
     7
176
     1
 62
   257
176
     1
 90
        1
176
     1
 90
        1
176
     1
 40
1.0
176
     1
 90
        8
176
     1
 62
     7
176
     1
 40
1.0
176
     1
 90
        1
176
     1
 90
        6
176
     1
 90
        2
176
     1
 62
     7
176
     1
 90
        5
176
     1
 90
        0
176
     1
 90
        0
176
     1
290
     0
176
     1
 90
        1
176
     1
 40
50.0
176
     1
 90
        0
176
     1
290
     0
176
     1
290
     1
176
     1
290
     1
176
     1
290
     0
176
     1
290
     0
176
     1
290
     0
176
     1
290
     0
176
     1
290
     0
176
     1
290
     0
176
     1
 90
       50
176
     1
 40
0.0
176
     1
 40
1.0
176
     1
 90
        0
176
     1
 62
    18
420
        0
176
     1
 90
       50
176
     1
 90
        3
176
     1
 62
     5
420
      255
176
     1
290
     0
176
     1
 90
       50
176
     1
 90
       50
176
     1
 90
       50
176
     1
290
     0
176
     1
 90
       50
176
     1
 62
   256
176
     0
 40
1.0
176
     0
 90
        2
176
     1
  1
strokes_ogs.tif
176
     1
290
     0
176
     1
 40
1.0
176
     1
 40
1.0
176
     1
  0
VISUALSTYLE
  5
39
102
{ACAD_REACTORS
330
29
102
}
330
29
100
AcDbVisualStyle
  2
ColorChange
 70
    16
177
     3
291
     1
 70
    58
 90
        2
176
     1
 90
        2
176
     1
 90
        3
176
     1
 90
        0
176
     1
 40
0.6
176
     1
 40
30.0
176
     1
 62
     8
420
  8421504
176
     1
 90
        1
176
     1
 90
        4
176
     1
 62
     7
176
     1
 62
   257
176
     1
 90
        1
176
     1
 90
        1
176
     1
 40
1.0
176
     1
 90
        8
176
     1
 62
     8
420
  8421504
176
     1
 40
1.0
176
     1
 90
        1
176
     1
 90
        6
176
     1
 90
        2
176
     1
 62
     7
176
     1
 90
        5
176
     1
 90
        0
176
     1
 90
        0
176
     1
290
     0
176
     1
 90
        1
176
     1
 40
0.0
176
     1
 90
        0
176
     1
290
     0
176
     1
290
     1
176
     1
290
     1
176
     1
290
     0
176
     1
290
     0
176
     1
290
     0
176
     1
290
     0
176
     1
290
     0
176
     1
290
     0
176
     1
 90
       50
176
     1
 40
0.0
176
     1
 40
1.0
176
     1
 90
        0
176
     1
 62
    18
420
        0
176
     1
 90
       50
176
     1
 90
        3
176
     1
 62
     5
420
      255
176
     1
290
     0
176
     1
 90
       50
176
     1
 90
       50
176
     1
 90
       50
176
     1
290
     0
176
     1
 90
       50
176
     1
 62
   256
176
     0
 40
1.0
176
     0
 90
        2
176
     1
  1
strokes_ogs.tif
176
     1
290
     0
176
     1
 40
1.0
176
     1
 40
1.0
176
     1
  0
VISUALSTYLE
  5
32
102
{ACAD_REACTORS
330
29
102
}
330
29
100
AcDbVisualStyle
  2
Conceptual
 70
     9
177
     3
291
     0
 70
    58
 90
        3
176
     1
 90
        2
176
     1
 90
        0
176
     1
 90
        0
176
     1
 40
0.6
176
     1
 40
30.0
176
     1
 62
     7
420
 16777215
176
     1
 90
        2
176
     1
 90
        2
176
     1
 62
     7
176
     1
 62
   257
176
     1
 90
        1
176
     1
 90
        1
176
     1
 40
179.0
176
     1
 90
        8
176
     1
 62
     7
176
     1
 40
1.0
176
     1
 90
        1
176
     1
 90
        6
176
     1
 90
        2
176
     1
 62
     7
176
     1
 90
        3
176
     1
 90
        0
176
     1
 90
        0
176
     1
290
     0
176
     1
 90
        1
176
     1
 40
0.0
176
     1
 90
        0
176
     1
290
     0
176
     1
290
     1
176
     1
290
     1
176
     1
290
     0
176
     1
290
     0
176
     1
290
     0
176
     1
290
     0
176
     1
290
     0
176
     1
290
     0
176
     1
 90
       50
176
     1
 40
0.0
176
     1
 40
1.0
176
     1
 90
        0
176
     1
 62
    18
420
        0
176
     1
 90
       50
176
     1
 90
        3
176
     1
 62
     5
420
      255
176
     1
290
     0
176
     1
 90
       50
176
     1
 90
       50
176
     1
 90
       50
176
     1
290
     0
176
     1
 90
       50
176
     1
 62
   256
176
     0
 40
1.0
176
     0
 90
        2
176
     1
  1
strokes_ogs.tif
176
     1
290
     0
176
     1
 40
1.0
176
     1
 40
1.0
176
     1
  0
VISUALSTYLE
  5
34
102
{ACAD_REACTORS
330
29
102
}
330
29
100
AcDbVisualStyle
  2
Dim
 70
    11
177
     3
291
     1
 70
    58
 90
        2
176
     1
 90
        2
176
     1
 90
        0
176
     1
 90
        0
176
     1
 40
0.6
176
     1
 40
30.0
176
     1
 62
     7
420
 16777215
176
     1
 90
        1
176
     1
 90
        4
176
     1
 62
     7
176
     1
 62
   257
176
     1
 90
        1
176
     1
 90
        1
176
     1
 40
1.0
176
     1
 90
        8
176
     1
 62
     7
176
     1
 40
1.0
176
     1
 90
        1
176
     1
 90
        6
176
     1
 90
        2
176
     1
 62
     7
176
     1
 90
        5
176
     1
 90
        0
176
     1
 90
        0
176
     1
290
     0
176
     1
 90
        1
176
     1
 40
-50.0
176
     1
 90
        0
176
     1
290
     0
176
     1
290
     1
176
     1
290
     1
176
     1
290
     0
176
     1
290
     0
176
     1
290
     0
176
     1
290
     0
176
     1
290
     0
176
     1
290
     0
176
     1
 90
       50
176
     1
 40
0.0
176
     1
 40
1.0
176
     1
 90
        0
176
     1
 62
    18
420
        0
176
     1
 90
       50
176
     1
 90
        3
176
     1
 62
     5
420
      255
176
     1
290
     0
176
     1
 90
       50
176
     1
 90
       50
176
     1
 90
       50
176
     1
290
     0
176
     1
 90
       50
176
     1
 62
   256
176
     0
 40
1.0
176
     0
 90
        2
176
     1
  1
strokes_ogs.tif
176
     1
290
     0
176
     1
 40
1.0
176
     1
 40
1.0
176
     1
  0
VISUALSTYLE
  5
41
102
{ACAD_REACTORS
330
29
102
}
330
29
100
AcDbVisualStyle
  2
EdgeColorOff
 70
    22
177
     3
291
     1
 70
    58
 90
        2
176
     0
 90
        2
176
     0
 90
        0
176
     0
 90
        0
176
     0
 40
0.6
176
     0
 40
30.0
176
     0
 62
     7
420
 16777215
176
     0
 90
        1
176
     0
 90
        4
176
     0
 62
     7
176
     0
 62
   257
176
     0
 90
        1
176
     0
 90
        1
176
     0
 40
1.0
176
     0
 90
        8
176
     2
 62
     7
176
     0
 40
1.0
176
     0
 90
        1
176
     0
 90
        6
176
     0
 90
        2
176
     0
 62
     7
176
     0
 90
        5
176
     0
 90
        0
176
     0
 90
        0
176
     0
290
     0
176
     0
 90
        1
176
     0
 40
0.0
176
     0
 90
        0
176
     0
290
     0
176
     0
290
     1
176
     0
290
     1
176
     0
290
     0
176
     0
290
     0
176
     0
290
     0
176
     0
290
     0
176
     0
290
     0
176
     0
290
     0
176
     0
 90
       50
176
     0
 40
0.0
176
     0
 40
1.0
176
     0
 90
        0
176
     0
 62
    18
420
        0
176
     0
 90
       50
176
     0
 90
        3
176
     0
 62
     5
420
      255
176
     0
290
     0
176
     0
 90
       50
176
     0
 90
       50
176
     0
 90
       50
176
     0
290
     0
176
     0
 90
       50
176
     0
 62
   256
176
     0
 40
1.0
176
     0
 90
        2
176
     0
  1
strokes_ogs.tif
176
     0
290
     0
176
     0
 40
1.0
176
     0
 40
1.0
176
     0
  0
VISUALSTYLE
  5
38
102
{ACAD_REACTORS
330
29
102
}
330
29
100
AcDbVisualStyle
  2
Facepattern
 70
    15
177
     3
291
     1
 70
    58
 90
        2
176
     1
 90
        2
176
     1
 90
        0
176
     1
 90
        0
176
     1
 40
0.6
176
     1
 40
30.0
176
     1
 62
     7
420
 16777215
176
     1
 90
        1
176
     1
 90
        4
176
     1
 62
     7
176
     1
 62
   257
176
     1
 90
        1
176
     1
 90
        1
176
     1
 40
1.0
176
     1
 90
        8
176
     1
 62
     7
176
     1
 40
1.0
176
     1
 90
        1
176
     1
 90
        6
176
     1
 90
        2
176
     1
 62
     7
176
     1
 90
        5
176
     1
 90
        0
176
     1
 90
        0
176
     1
290
     0
176
     1
 90
        1
176
     1
 40
0.0
176
     1
 90
        0
176
     1
290
     0
176
     1
290
     1
176
     1
290
     1
176
     1
290
     0
176
     1
290
     0
176
     1
290
     0
176
     1
290
     0
176
     1
290
     0
176
     1
290
     0
176
     1
 90
       50
176
     1
 40
0.0
176
     1
 40
1.0
176
     1
 90
        0
176
     1
 62
    18
420
        0
176
     1
 90
       50
176
     1
 90
        3
176
     1
 62
     5
420
      255
176
     1
290
     0
176
     1
 90
       50
176
     1
 90
       50
176
     1
 90
       50
176
     1
290
     0
176
     1
 90
       50
176
     1
 62
   256
176
     0
 40
1.0
176
     0
 90
        2
176
     1
  1
strokes_ogs.tif
176
     1
290
     0
176
     1
 40
1.0
176
     1
 40
1.0
176
     1
  0
VISUALSTYLE
  5
2A
102
{ACAD_REACTORS
330
29
102
}
330
29
100
AcDbVisualStyle
  2
Flat
 70
     0
177
     3
291
     1
 70
    58
 90
        2
176
     1
 90
        1
176
     1
 90
        1
176
     1
 90
        2
176
     1
 40
0.6
176
     1
 40
30.0
176
     1
 62
     7
420
 16777215
176
     1
 90
        0
176
     1
 90
        0
176
     1
 62
     7
176
     1
 62
   257
176
     1
 90
        1
176
     1
 90
        1
176
     1
 40
1.0
176
     1
 90
        8
176
     1
 62
     7
176
     1
 40
1.0
176
     1
 90
        1
176
     1
 90
        6
176
     1
 90
        2
176
     1
 62
     7
176
     1
 90
        5
176
     1
 90
        0
176
     1
 90
        0
176
     1
290
     0
176
     1
 90
       13
176
     1
 40
0.0
176
     1
 90
        0
176
     1
290
     0
176
     1
290
     1
176
     1
290
     1
176
     1
290
     0
176
     1
290
     0
176
     1
290
     0
176
     1
290
     0
176
     1
290
     0
176
     1
290
     0
176
     1
 90
       50
176
     1
 40
0.0
176
     1
 40
1.0
176
     1
 90
        0
176
     1
 62
    18
420
        0
176
     1
 90
       50
176
     1
 90
        3
176
     1
 62
     5
420
      255
176
     1
290
     0
176
     1
 90
       50
176
     1
 90
       50
176
     1
 90
       50
176
     1
290
     0
176
     1
 90
       50
176
     1
 62
   256
176
     0
 40
1.0
176
     0
 90
        2
176
     1
  1
strokes_ogs.tif
176
     1
290
     0
176
     1
 40
1.0
176
     1
 40
1.0
176
     1
  0
VISUALSTYLE
  5
2B
102
{ACAD_REACTORS
330
29
102
}
330
29
100
AcDbVisualStyle
  2
FlatWithEdges
 70
     1
177
     3
291
     1
 70
    58
 90
        2
176
     1
 90
        1
176
     1
 90
        1
176
     1
 90
        2
176
     1
 40
0.6
176
     1
 40
30.0
176
     1
 62
     7
420
 16777215
176
     1
 90
        1
176
     1
 90
        0
176
     1
 62
     7
176
     1
 62
   257
176
     1
 90
        1
176
     1
 90
        1
176
     1
 40
1.0
176
     1
 90
        0
176
     1
 62
   257
176
     1
 40
1.0
176
     1
 90
        1
176
     1
 90
        6
176
     1
 90
        2
176
     1
 62
     7
176
     1
 90
        5
176
     1
 90
        0
176
     1
 90
        0
176
     1
290
     0
176
     1
 90
       13
176
     1
 40
0.0
176
     1
 90
        0
176
     1
290
     0
176
     1
290
     1
176
     1
290
     1
176
     1
290
     0
176
     1
290
     0
176
     1
290
     0
176
     1
290
     0
176
     1
290
     0
176
     1
290
     0
176
     1
 90
       50
176
     1
 40
0.0
176
     1
 40
1.0
176
     1
 90
        0
176
     1
 62
    18
420
        0
176
     1
 90
       50
176
     1
 90
        3
176
     1
 62
     5
420
      255
176
     1
290
     0
176
     1
 90
       50
176
     1
 90
       50
176
     1
 90
       50
176
     1
290
     0
176
     1
 90
       50
176
     1
 62
   256
176
     0
 40
1.0
176
     0
 90
        2
176
     1
  1
strokes_ogs.tif
176
     1
290
     0
176
     1
 40
1.0
176
     1
 40
1.0
176
     1
  0
VISUALSTYLE
  5
2C
102
{ACAD_REACTORS
330
29
102
}
330
29
100
AcDbVisualStyle
  2
Gouraud
 70
     2
177
     3
291
     1
 70
    58
 90
        2
176
     1
 90
        2
176
     1
 90
        1
176
     1
 90
        2
176
     1
 40
0.6
176
     1
 40
30.0
176
     1
 62
     7
420
 16777215
176
     1
 90
        0
176
     1
 90
        0
176
     1
 62
     7
176
     1
 62
   257
176
     1
 90
        1
176
     1
 90
        1
176
     1
 40
1.0
176
     1
 90
        0
176
     1
 62
     7
176
     1
 40
1.0
176
     1
 90
        1
176
     1
 90
        6
176
     1
 90
        2
176
     1
 62
     7
176
     1
 90
        5
176
     1
 90
        0
176
     1
 90
        0
176
     1
290
     0
176
     1
 90
       13
176
     1
 40
0.0
176
     1
 90
        0
176
     1
290
     0
176
     1
290
     1
176
     1
290
     1
176
     1
290
     0
176
     1
290
     0
176
     1
290
     0
176
     1
290
     0
176
     1
290
     0
176
     1
290
     0
176
     1
 90
       50
176
     1
 40
0.0
176
     1
 40
1.0
176
     1
 90
        0
176
     1
 62
    18
420
        0
176
     1
 90
       50
176
     1
 90
        3
176
     1
 62
     5
420
      255
176
     1
290
     0
176
     1
 90
       50
176
     1
 90
       50
176
     1
 90
       50
176
     1
290
     0
176
     1
 90
       50
176
     1
 62
   256
176
     0
 40
1.0
176
     0
 90
        2
176
     1
  1
strokes_ogs.tif
176
     1
290
     0
176
     1
 40
1.0
176
     1
 40
1.0
176
     1
  0
VISUALSTYLE
  5
2D
102
{ACAD_REACTORS
330
29
102
}
330
29
100
AcDbVisualStyle
  2
GouraudWithEdges
 70
     3
177
     3
291
     1
 70
    58
 90
        2
176
     1
 90
        2
176
     1
 90
        1
176
     1
 90
        2
176
     1
 40
0.6
176
     1
 40
30.0
176
     1
 62
     7
420
 16777215
176
     1
 90
        1
176
     1
 90
        0
176
     1
 62
     7
176
     1
 62
   257
176
     1
 90
        1
176
     1
 90
        1
176
     1
 40
1.0
176
     1
 90
        0
176
     1
 62
   257
176
     1
 40
1.0
176
     1
 90
        1
176
     1
 90
        6
176
     1
 90
        2
176
     1
 62
     7
176
     1
 90
        5
176
     1
 90
        0
176
     1
 90
        0
176
     1
290
     0
176
     1
 90
       13
176
     1
 40
0.0
176
     1
 90
        0
176
     1
290
     0
176
     1
290
     1
176
     1
290
     1
176
     1
290
     0
176
     1
290
     0
176
     1
290
     0
176
     1
290
     0
176
     1
290
     0
176
     1
290
     0
176
     1
 90
       50
176
     1
 40
0.0
176
     1
 40
1.0
176
     1
 90
        0
176
     1
 62
    18
420
        0
176
     1
 90
       50
176
     1
 90
        3
176
     1
 62
     5
420
      255
176
     1
290
     0
176
     1
 90
       50
176
     1
 90
       50
176
     1
 90
       50
176
     1
290
     0
176
     1
 90
       50
176
     1
 62
   256
176
     0
 40
1.0
176
     0
 90
        2
176
     1
  1
strokes_ogs.tif
176
     1
290
     0
176
     1
 40
1.0
176
     1
 40
1.0
176
     1
  0
VISUALSTYLE
  5
31
102
{ACAD_REACTORS
330
29
102
}
330
29
100
AcDbVisualStyle
  2
Hidden
 70
     6
177
     3
291
     0
 70
    58
 90
        1
176
     1
 90
        2
176
     1
 90
        2
176
     1
 90
        0
176
     1
 40
0.6
176
     1
 40
30.0
176
     1
 62
     7
420
 16777215
176
     1
 90
        2
176
     1
 90
        2
176
     1
 62
     7
176
     1
 62
   257
176
     1
 90
        2
176
     1
 90
        1
176
     1
 40
40.0
176
     1
 90
        0
176
     1
 62
   257
176
     1
 40
1.0
176
     1
 90
        1
176
     1
 90
        6
176
     1
 90
        2
176
     1
 62
     7
176
     1
 90
        3
176
     1
 90
        0
176
     1
 90
        0
176
     1
290
     0
176
     1
 90
        1
176
     1
 40
0.0
176
     1
 90
        0
176
     1
290
     0
176
     1
290
     1
176
     1
290
     1
176
     1
290
     0
176
     1
290
     0
176
     1
290
     0
176
     1
290
     0
176
     1
290
     0
176
     1
290
     0
176
     1
 90
       50
176
     1
 40
0.0
176
     1
 40
1.0
176
     1
 90
        0
176
     1
 62
    18
420
        0
176
     1
 90
       50
176
     1
 90
        3
176
     1
 62
     5
420
      255
176
     1
290
     0
176
     1
 90
       50
176
     1
 90
       50
176
     1
 90
       50
176
     1
290
     0
176
     1
 90
       50
176
     1
 62
   256
176
     0
 40
1.0
176
     0
 90
        2
176
     1
  1
strokes_ogs.tif
176
     1
290
     0
176
     1
 40
1.0
176
     1
 40
1.0
176
     1
  0
VISUALSTYLE
  5
3F
102
{ACAD_REACTORS
330
29
102
}
330
29
100
AcDbVisualStyle
  2
JitterOff
 70
    20
177
     3
291
     1
 70
    58
 90
        2
176
     0
 90
        2
176
     0
 90
        0
176
     0
 90
        0
176
     0
 40
0.6
176
     0
 40
30.0
176
     0
 62
     7
420
 16777215
176
     0
 90
        1
176
     0
 90
        4
176
     0
 62
     7
176
     0
 62
   257
176
     0
 90
        1
176
     0
 90
        1
176
     0
 40
1.0
176
     0
 90
       10
176
     2
 62
     7
176
     0
 40
1.0
176
     0
 90
        1
176
     0
 90
        6
176
     0
 90
        2
176
     0
 62
     7
176
     0
 90
        5
176
     0
 90
        0
176
     0
 90
        0
176
     0
290
     0
176
     0
 90
        1
176
     0
 40
0.0
176
     0
 90
        0
176
     0
290
     0
176
     0
290
     1
176
     0
290
     1
176
     0
290
     0
176
     0
290
     0
176
     0
290
     0
176
     0
290
     0
176
     0
290
     0
176
     0
290
     0
176
     0
 90
       50
176
     0
 40
0.0
176
     0
 40
1.0
176
     0
 90
        0
176
     0
 62
    18
420
        0
176
     0
 90
       50
176
     0
 90
        3
176
     0
 62
     5
420
      255
176
     0
290
     0
176
     0
 90
       50
176
     0
 90
       50
176
     0
 90
       50
176
     0
290
     0
176
     0
 90
       50
176
     0
 62
   256
176
     0
 40
1.0
176
     0
 90
        2
176
     0
  1
strokes_ogs.tif
176
     0
290
     0
176
     0
 40
1.0
176
     0
 40
1.0
176
     0
  0
VISUALSTYLE
  5
37
102
{ACAD_REACTORS
330
29
102
}
330
29
100
AcDbVisualStyle
  2
Linepattern
 70
    14
177
     3
291
     1
 70
    58
 90
        2
176
     1
 90
        2
176
     1
 90
        0
176
     1
 90
        0
176
     1
 40
0.6
176
     1
 40
30.0
176
     1
 62
     7
420
 16777215
176
     1
 90
        1
176
     1
 90
        4
176
     1
 62
     7
176
     1
 62
   257
176
     1
 90
        7
176
     1
 90
        7
176
     1
 40
1.0
176
     1
 90
        8
176
     1
 62
     7
176
     1
 40
1.0
176
     1
 90
        1
176
     1
 90
        6
176
     1
 90
        2
176
     1
 62
     7
176
     1
 90
        5
176
     1
 90
        0
176
     1
 90
        0
176
     1
290
     0
176
     1
 90
        1
176
     1
 40
0.0
176
     1
 90
        0
176
     1
290
     0
176
     1
290
     1
176
     1
290
     1
176
     1
290
     0
176
     1
290
     0
176
     1
290
     0
176
     1
290
     0
176
     1
290
     0
176
     1
290
     0
176
     1
 90
       50
176
     1
 40
0.0
176
     1
 40
1.0
176
     1
 90
        0
176
     1
 62
    18
420
        0
176
     1
 90
       50
176
     1
 90
        3
176
     1
 62
     5
420
      255
176
     1
290
     0
176
     1
 90
       50
176
     1
 90
       50
176
     1
 90
       50
176
     1
290
     0
176
     1
 90
       50
176
     1
 62
   256
176
     0
 40
1.0
176
     0
 90
        2
176
     1
  1
strokes_ogs.tif
176
     1
290
     0
176
     1
 40
1.0
176
     1
 40
1.0
176
     1
  0
VISUALSTYLE
  5
40
102
{ACAD_REACTORS
330
29
102
}
330
29
100
AcDbVisualStyle
  2
OverhangOff
 70
    21
177
     3
291
     1
 70
    58
 90
        2
176
     0
 90
        2
176
     0
 90
        0
176
     0
 90
        0
176
     0
 40
0.6
176
     0
 40
30.0
176
     0
 62
     7
420
 16777215
176
     0
 90
        1
176
     0
 90
        4
176
     0
 62
     7
176
     0
 62
   257
176
     0
 90
        1
176
     0
 90
        1
176
     0
 40
1.0
176
     0
 90
        9
176
     2
 62
     7
176
     0
 40
1.0
176
     0
 90
        1
176
     0
 90
        6
176
     0
 90
        2
176
     0
 62
     7
176
     0
 90
        5
176
     0
 90
        0
176
     0
 90
        0
176
     0
290
     0
176
     0
 90
        1
176
     0
 40
0.0
176
     0
 90
        0
176
     0
290
     0
176
     0
290
     1
176
     0
290
     1
176
     0
290
     0
176
     0
290
     0
176
     0
290
     0
176
     0
290
     0
176
     0
290
     0
176
     0
290
     0
176
     0
 90
       50
176
     0
 40
0.0
176
     0
 40
1.0
176
     0
 90
        0
176
     0
 62
    18
420
        0
176
     0
 90
       50
176
     0
 90
        3
176
     0
 62
     5
420
      255
176
     0
290
     0
176
     0
 90
       50
176
     0
 90
       50
176
     0
 90
       50
176
     0
290
     0
176
     0
 90
       50
176
     0
 62
   256
176
     0
 40
1.0
176
     0
 90
        2
176
     0
  1
strokes_ogs.tif
176
     0
290
     0
176
     0
 40
1.0
176
     0
 40
1.0
176
     0
  0
VISUALSTYLE
  5
33
102
{ACAD_REACTORS
330
29
102
}
330
29
100
AcDbVisualStyle
  2
Realistic
 70
     8
177
     3
291
     0
 70
    58
 90
        2
176
     1
 90
        3
176
     1
 90
        0
176
     1
 90
        2
176
     1
 40
0.6
176
     1
 40
30.0
176
     1
 62
     7
420
 16777215
176
     1
 90
        0
176
     1
 90
        0
176
     1
 62
     7
176
     1
 62
   257
176
     1
 90
        1
176
     1
 90
        1
176
     1
 40
1.0
176
     1
 90
        8
176
     1
 62
   257
176
     1
 40
1.0
176
     1
 90
        1
176
     1
 90
        6
176
     1
 90
        2
176
     1
 62
     7
176
     1
 90
        3
176
     1
 90
        0
176
     1
 90
        0
176
     1
290
     0
176
     1
 90
       13
176
     1
 40
0.0
176
     1
 90
        0
176
     1
290
     0
176
     1
290
     1
176
     1
290
     1
176
     1
290
     0
176
     1
290
     0
176
     1
290
     0
176
     1
290
     0
176
     1
290
     0
176
     1
290
     0
176
     1
 90
       50
176
     1
 40
0.0
176
     1
 40
1.0
176
     1
 90
        0
176
     1
 62
    18
420
        0
176
     1
 90
       50
176
     1
 90
        3
176
     1
 62
     5
420
      255
176
     1
290
     0
176
     1
 90
       50
176
     1
 90
       50
176
     1
 90
       50
176
     1
290
     0
176
     1
 90
       50
176
     1
 62
   256
176
     0
 40
1.0
176
     0
 90
        2
176
     1
  1
strokes_ogs.tif
176
     1
290
     0
176
     1
 40
1.0
176
     1
 40
1.0
176
     1
  0
VISUALSTYLE
  5
3E
102
{ACAD_REACTORS
330
29
102
}
330
29
100
AcDbVisualStyle
  2
Shaded
 70
    27
177
     3
291
     0
 70
    58
 90
        2
176
     1
 90
        2
176
     1
 90
        1
176
     1
 90
        2
176
     1
 40
0.6
176
     1
 40
30.0
176
     1
 62
     7
420
 16777215
176
     1
 90
        0
176
     1
 90
        4
176
     1
 62
     7
176
     1
 62
   257
176
     1
 90
        1
176
     1
 90
        1
176
     1
 40
1.0
176
     1
 90
        8
176
     1
 62
   257
176
     1
 40
1.0
176
     1
 90
        1
176
     1
 90
        6
176
     1
 90
        2
176
     1
 62
     8
420
  7895160
176
     1
 90
        3
176
     1
 90
        0
176
     1
 90
        0
176
     1
290
     0
176
     1
 90
        5
176
     1
 40
0.0
176
     1
 90
        0
176
     1
290
     0
176
     1
290
     1
176
     1
290
     1
176
     1
290
     0
176
     1
290
     0
176
     1
290
     0
176
     1
290
     0
176
     1
290
     0
176
     1
290
     0
176
     1
 90
       50
176
     1
 40
0.0
176
     1
 40
1.0
176
     1
 90
        0
176
     1
 62
    18
420
        0
176
     1
 90
       50
176
     1
 90
        3
176
     1
 62
     5
420
      255
176
     1
290
     0
176
     1
 90
       50
176
     1
 90
       50
176
     1
 90
       50
176
     1
290
     0
176
     1
 90
       50
176
     1
 62
   256
176
     0
 40
1.0
176
     0
 90
        2
176
     1
  1
strokes_ogs.tif
176
     1
290
     0
176
     1
 40
1.0
176
     1
 40
1.0
176
     1
  0
VISUALSTYLE
  5
3D
102
{ACAD_REACTORS
330
29
102
}
330
29
100
AcDbVisualStyle
  2
Shaded with edges
 70
    26
177
     3
291
     0
 70
    58
 90
        2
176
     1
 90
        2
176
     1
 90
        1
176
     1
 90
        2
176
     1
 40
0.6
176
     1
 40
30.0
176
     1
 62
     7
420
 16777215
176
     1
 90
        1
176
     1
 90
        2
176
     1
 62
     7
176
     1
 62
   257
176
     1
 90
        2
176
     1
 90
        1
176
     1
 40
1.0
176
     1
 90
        8
176
     1
 62
   257
176
     1
 40
1.0
176
     1
 90
        1
176
     1
 90
        6
176
     1
 90
        2
176
     1
 62
     7
176
     1
 90
        3
176
     1
 90
        0
176
     1
 90
        0
176
     1
290
     0
176
     1
 90
        5
176
     1
 40
0.0
176
     1
 90
        0
176
     1
290
     0
176
     1
290
     1
176
     1
290
     1
176
     1
290
     0
176
     1
290
     0
176
     1
290
     0
176
     1
290
     0
176
     1
290
     0
176
     1
290
     0
176
     1
 90
       50
176
     1
 40
0.0
176
     1
 40
1.0
176
     1
 90
        0
176
     1
 62
    18
420
        0
176
     1
 90
       50
176
     1
 90
        3
176
     1
 62
     5
420
      255
176
     1
290
     0
176
     1
 90
       50
176
     1
 90
       50
176
     1
 90
       50
176
     1
290
     0
176
     1
 90
       50
176
     1
 62
   256
176
     0
 40
1.0
176
     0
 90
        2
176
     1
  1
strokes_ogs.tif
176
     1
290
     0
176
     1
 40
1.0
176
     1
 40
1.0
176
     1
  0
VISUALSTYLE
  5
3A
102
{ACAD_REACTORS
330
29
102
}
330
29
100
AcDbVisualStyle
  2
Shades of Gray
 70
    23
177
     3
291
     0
 70
    58
 90
        2
176
     1
 90
        2
176
     1
 90
        3
176
     1
 90
        0
176
     1
 40
0.6
176
     1
 40
30.0
176
     1
 62
     7
420
 16777215
176
     1
 90
        2
176
     1
 90
        2
176
     1
 62
     7
176
     1
 62
     7
176
     1
 90
        1
176
     1
 90
        1
176
     1
 40
40.0
176
     1
 90
        8
176
     1
 62
     7
176
     1
 40
1.0
176
     1
 90
        1
176
     1
 90
        6
176
     1
 90
        2
176
     1
 62
     7
176
     1
 90
        3
176
     1
 90
        0
176
     1
 90
        0
176
     1
290
     0
176
     1
 90
        1
176
     1
 40
0.0
176
     1
 90
        0
176
     1
290
     0
176
     1
290
     1
176
     1
290
     1
176
     1
290
     0
176
     1
290
     0
176
     1
290
     0
176
     1
290
     0
176
     1
290
     0
176
     1
290
     0
176
     1
 90
       50
176
     1
 40
0.0
176
     1
 40
1.0
176
     1
 90
        0
176
     1
 62
    18
420
        0
176
     1
 90
       50
176
     1
 90
        3
176
     1
 62
     5
420
      255
176
     1
290
     0
176
     1
 90
       50
176
     1
 90
       50
176
     1
 90
       50
176
     1
290
     0
176
     1
 90
       50
176
     1
 62
   256
176
     0
 40
1.0
176
     0
 90
        2
176
     1
  1
strokes_ogs.tif
176
     1
290
     0
176
     1
 40
1.0
176
     1
 40
1.0
176
     1
  0
VISUALSTYLE
  5
3B
102
{ACAD_REACTORS
330
29
102
}
330
29
100
AcDbVisualStyle
  2
Sketchy
 70
    24
177
     3
291
     0
 70
    58
 90
        1
176
     1
 90
        2
176
     1
 90
        2
176
     1
 90
        0
176
     1
 40
0.6
176
     1
 40
30.0
176
     1
 62
     7
420
 16777215
176
     1
 90
        2
176
     1
 90
        2
176
     1
 62
     7
176
     1
 62
     7
176
     1
 90
        1
176
     1
 90
        1
176
     1
 40
40.0
176
     1
 90
       11
176
     1
 62
     7
176
     1
 40
1.0
176
     1
 90
        1
176
     1
 90
        6
176
     1
 90
        2
176
     1
 62
     7
176
     1
 90
        6
176
     1
 90
        0
176
     1
 90
        0
176
     1
290
     0
176
     1
 90
        1
176
     1
 40
0.0
176
     1
 90
        0
176
     1
290
     0
176
     1
290
     1
176
     1
290
     1
176
     1
290
     0
176
     1
290
     0
176
     1
290
     0
176
     1
290
     0
176
     1
290
     0
176
     1
290
     0
176
     1
 90
       50
176
     1
 40
0.0
176
     1
 40
1.0
176
     1
 90
        0
176
     1
 62
    18
420
        0
176
     1
 90
       50
176
     1
 90
        3
176
     1
 62
     5
420
      255
176
     1
290
     0
176
     1
 90
       50
176
     1
 90
       50
176
     1
 90
       50
176
     1
290
     0
176
     1
 90
       50
176
     1
 62
   256
176
     0
 40
1.0
176
     0
 90
        2
176
     1
  1
strokes_ogs.tif
176
     1
290
     0
176
     1
 40
1.0
176
     1
 40
1.0
176
     1
  0
VISUALSTYLE
  5
36
102
{ACAD_REACTORS
330
29
102
}
330
29
100
AcDbVisualStyle
  2
Thicken
 70
    13
177
     3
291
     1
 70
    58
 90
        2
176
     1
 90
        2
176
     1
 90
        0
176
     1
 90
        0
176
     1
 40
0.6
176
     1
 40
30.0
176
     1
 62
     7
420
 16777215
176
     1
 90
        1
176
     1
 90
        4
176
     1
 62
     7
176
     1
 62
   257
176
     1
 90
        1
176
     1
 90
        1
176
     1
 40
1.0
176
     1
 90
       12
176
     1
 62
     7
176
     1
 40
1.0
176
     1
 90
        1
176
     1
 90
        6
176
     1
 90
        2
176
     1
 62
     7
176
     1
 90
        5
176
     1
 90
        0
176
     1
 90
        0
176
     1
290
     0
176
     1
 90
        1
176
     1
 40
0.0
176
     1
 90
        0
176
     1
290
     0
176
     1
290
     1
176
     1
290
     1
176
     1
290
     0
176
     1
290
     0
176
     1
290
     0
176
     1
290
     0
176
     1
290
     0
176
     1
290
     0
176
     1
 90
       50
176
     1
 40
0.0
176
     1
 40
1.0
176
     1
 90
        0
176
     1
 62
    18
420
        0
176
     1
 90
       50
176
     1
 90
        3
176
     1
 62
     5
420
      255
176
     1
290
     0
176
     1
 90
       50
176
     1
 90
       50
176
     1
 90
       50
176
     1
290
     0
176
     1
 90
       50
176
     1
 62
   256
176
     0
 40
1.0
176
     0
 90
        2
176
     1
  1
strokes_ogs.tif
176
     1
290
     0
176
     1
 40
1.0
176
     1
 40
1.0
176
     1
  0
VISUALSTYLE
  5
30
102
{ACAD_REACTORS
330
29
102
}
330
29
100
AcDbVisualStyle
  2
Wireframe
 70
     5
177
     3
291
     0
 70
    58
 90
        0
176
     1
 90
        2
176
     1
 90
        0
176
     1
 90
        0
176
     1
 40
0.6
176
     1
 40
30.0
176
     1
 62
     7
420
 16777215
176
     1
 90
        1
176
     1
 90
        4
176
     1
 62
     7
176
     1
 62
   257
176
     1
 90
        1
176
     1
 90
        1
176
     1
 40
1.0
176
     1
 90
        0
176
     1
 62
   257
176
     1
 40
1.0
176
     1
 90
        1
176
     1
 90
        6
176
     1
 90
        2
176
     1
 62
     7
176
     1
 90
        3
176
     1
 90
        0
176
     1
 90
        0
176
     1
290
     0
176
     1
 90
        1
176
     1
 40
0.0
176
     1
 90
        0
176
     1
290
     0
176
     1
290
     1
176
     1
290
     1
176
     1
290
     0
176
     1
290
     0
176
     1
290
     0
176
     1
290
     0
176
     1
290
     0
176
     1
290
     0
176
     1
 90
       50
176
     1
 40
0.0
176
     1
 40
1.0
176
     1
 90
        0
176
     1
 62
    18
420
        0
176
     1
 90
       50
176
     1
 90
        3
176
     1
 62
     5
420
      255
176
     1
290
     0
176
     1
 90
       50
176
     1
 90
       50
176
     1
 90
       50
176
     1
290
     0
176
     1
 90
       50
176
     1
 62
   256
176
     0
 40
1.0
176
     0
 90
        2
176
     1
  1
strokes_ogs.tif
176
     1
290
     0
176
     1
 40
1.0
176
     1
 40
1.0
176
     1
  0
VISUALSTYLE
  5
3C
102
{ACAD_REACTORS
330
29
102
}
330
29
100
AcDbVisualStyle
  2
X-Ray
 70
    25
177
     3
291
     0
 70
    58
 90
        2
176
     1
 90
        2
176
     1
 90
        1
176
     1
 90
        1
176
     1
 40
0.5
176
     1
 40
30.0
176
     1
 62
     7
420
 16777215
176
     1
 90
        1
176
     1
 90
        0
176
     1
 62
     7
176
     1
 62
   257
176
     1
 90
        1
176
     1
 90
        1
176
     1
 40
1.0
176
     1
 90
        8
176
     1
 62
     7
176
     1
 40
1.0
176
     1
 90
        1
176
     1
 90
        6
176
     1
 90
        2
176
     1
 62
     7
176
     1
 90
        3
176
     1
 90
        0
176
     1
 90
        0
176
     1
290
     0
176
     1
 90
       13
176
     1
 40
0.0
176
     1
 90
        0
176
     1
290
     0
176
     1
290
     1
176
     1
290
     1
176
     1
290
     0
176
     1
290
     0
176
     1
290
     0
176
     1
290
     0
176
     1
290
     0
176
     1
290
     0
176
     1
 90
       50
176
     1
 40
0.0
176
     1
 40
1.0
176
     1
 90
        0
176
     1
 62
    18
420
        0
176
     1
 90
       50
176
     1
 90
        3
176
     1
 62
     5
420
      255
176
     1
290
     0
176
     1
 90
       50
176
     1
 90
       50
176
     1
 90
       50
176
     1
290
     0
176
     1
 90
       50
176
     1
 62
   256
176
     0
 40
1.0
176
     0
 90
        2
176
     1
  1
strokes_ogs.tif
176
     1
290
     0
176
     1
 40
1.0
176
     1
 40
1.0
176
     1
  0
DICTIONARYVAR
  5
217
102
{ACAD_REACTORS
330
212
102
}
330
212
100
DictionaryVariables
280
     0
  1
1:1
  0
DICTIONARYVAR
  5
214
102
{ACAD_REACTORS
330
212
102
}
330
212
100
DictionaryVariables
280
     0
  1
STANDARD
  0
DICTIONARYVAR
  5
213
102
{ACAD_REACTORS
330
212
102
}
330
212
100
DictionaryVariables
280
     0
  1
STANDARD
  0
DICTIONARYVAR
  5
215
102
{ACAD_REACTORS
330
212
102
}
330
212
100
DictionaryVariables
280
     0
  1
Imperial24
  0
DICTIONARYVAR
  5
216
102
{ACAD_REACTORS
330
212
102
}
330
212
100
DictionaryVariables
280
     0
  1
Imperial24
  0
DICTIONARY
  5
1A
330
19
100
AcDbDictionary
280
     1
281
     1
  3
BUMPTILE
360
1C
  3
DIFFUSETILE
360
1B
  3
OPACITYTILE
360
1F
  3
REFLECTIONTILE
360
1E
  3
REFRACTIONTILE
360
20
  3
SPECULARTILE
360
1D
  0
DICTIONARY
  5
12
330
11
100
AcDbDictionary
280
     1
281
     1
  3
BUMPTILE
360
14
  3
DIFFUSETILE
360
13
  3
OPACITYTILE
360
17
  3
REFLECTIONTILE
360
16
  3
REFRACTIONTILE
360
18
  3
SPECULARTILE
360
15
  0
DICTIONARY
  5
22
330
21
100
AcDbDictionary
280
     1
281
     1
  3
BUMPTILE
360
24
  3
DIFFUSETILE
360
23
  3
OPACITYTILE
360
27
  3
REFLECTIONTILE
360
26
  3
REFRACTIONTILE
360
28
  3
SPECULARTILE
360
25
  0
DICTIONARY
  5
218
330
65
100
AcDbDictionary
280
     1
281
     1
  3
ACAD_ROUNDTRIP_2008_TABLESTYLE_CELLSTYLEMAP
360
219
  0
XRECORD
  5
1C
102
{ACAD_REACTORS
330
1A
102
}
330
1A
100
AcDbXrecord
280
     1
270
     1
271
     1
  0
XRECORD
  5
1B
102
{ACAD_REACTORS
330
1A
102
}
330
1A
100
AcDbXrecord
280
     1
270
     1
271
     1
  0
XRECORD
  5
1F
102
{ACAD_REACTORS
330
1A
102
}
330
1A
100
AcDbXrecord
280
     1
270
     1
271
     1
  0
XRECORD
  5
1E
102
{ACAD_REACTORS
330
1A
102
}
330
1A
100
AcDbXrecord
280
     1
270
     1
271
     1
  0
XRECORD
  5
20
102
{ACAD_REACTORS
330
1A
102
}
330
1A
100
AcDbXrecord
280
     1
270
     1
271
     1
  0
XRECORD
  5
1D
102
{ACAD_REACTORS
330
1A
102
}
330
1A
100
AcDbXrecord
280
     1
270
     1
271
     1
  0
XRECORD
  5
14
102
{ACAD_REACTORS
330
12
102
}
330
12
100
AcDbXrecord
280
     1
270
     1
271
     1
  0
XRECORD
  5
13
102
{ACAD_REACTORS
330
12
102
}
330
12
100
AcDbXrecord
280
     1
270
     1
271
     1
  0
XRECORD
  5
17
102
{ACAD_REACTORS
330
12
102
}
330
12
100
AcDbXrecord
280
     1
270
     1
271
     1
  0
XRECORD
  5
16
102
{ACAD_REACTORS
330
12
102
}
330
12
100
AcDbXrecord
280
     1
270
     1
271
     1
  0
XRECORD
  5
18
102
{ACAD_REACTORS
330
12
102
}
330
12
100
AcDbXrecord
280
     1
270
     1
271
     1
  0
XRECORD
  5
15
102
{ACAD_REACTORS
330
12
102
}
330
12
100
AcDbXrecord
280
     1
270
     1
271
     1
  0
XRECORD
  5
24
102
{ACAD_REACTORS
330
22
102
}
330
22
100
AcDbXrecord
280
     1
270
     1
271
     1
  0
XRECORD
  5
23
102
{ACAD_REACTORS
330
22
102
}
330
22
100
AcDbXrecord
280
     1
270
     1
271
     1
  0
XRECORD
  5
27
102
{ACAD_REACTORS
330
22
102
}
330
22
100
AcDbXrecord
280
     1
270
     1
271
     1
  0
XRECORD
  5
26
102
{ACAD_REACTORS
330
22
102
}
330
22
100
AcDbXrecord
280
     1
270
     1
271
     1
  0
XRECORD
  5
28
102
{ACAD_REACTORS
330
22
102
}
330
22
100
AcDbXrecord
280
     1
270
     1
271
     1
  0
XRECORD
  5
25
102
{ACAD_REACTORS
330
22
102
}
330
22
100
AcDbXrecord
280
     1
270
     1
271
     1
  0
CELLSTYLEMAP
  5
219
102
{ACAD_REACTORS
330
218
102
}
330
218
100
AcDbCellStyleMap
 90
        3
300
CELLSTYLE
  1
TABLEFORMAT_BEGIN
 90
        5
170
     1
 91
        0
 92
    32768
 62
   257
 93
        1
300
CONTENTFORMAT
  1
CONTENTFORMAT_BEGIN
 90
        0
 91
        0
 92
      512
 93
        0
300

 40
0.0
140
1.0
 94
        5
 62
     0
340
55
144
0.25
309
CONTENTFORMAT_END
171
     0
 94
        0
309
TABLEFORMAT_END
  1
CELLSTYLE_BEGIN
 90
        1
 91
        1
300
_TITLE
309
CELLSTYLE_END
300
CELLSTYLE
  1
TABLEFORMAT_BEGIN
 90
        5
170
     1
 91
        0
 92
        0
 62
   257
 93
        1
300
CONTENTFORMAT
  1
CONTENTFORMAT_BEGIN
 90
        0
 91
        0
 92
      512
 93
        0
300

 40
0.0
140
1.0
 94
        5
 62
     0
340
55
144
0.18
309
CONTENTFORMAT_END
171
     0
 94
        0
309
TABLEFORMAT_END
  1
CELLSTYLE_BEGIN
 90
        2
 91
        1
300
_HEADER
309
CELLSTYLE_END
300
CELLSTYLE
  1
TABLEFORMAT_BEGIN
 90
        5
170
     1
 91
        0
 92
        0
 62
   257
 93
        1
300
CONTENTFORMAT
  1
CONTENTFORMAT_BEGIN
 90
        0
 91
        0
 92
      512
 93
        0
300

 40
0.0
140
1.0
 94
        2
 62
     0
340
55
144
0.18
309
CONTENTFORMAT_END
171
     0
 94
        0
309
TABLEFORMAT_END
  1
CELLSTYLE_BEGIN
 90
        3
 91
        2
300
_DATA
309
CELLSTYLE_END
  0
ENDSEC
  0
EOF
