  0
SECTION
  2
HEADER
  9
$ACADVER
  1
AC1024
  9
$ACADMAINTVER
 70
     6
  9
$DWGCODEPAGE
  3
ANSI_1252
  9
$INSBASE
 10
0.0
 20
0.0
 30
0.0
  9
$EXTMIN
 10
1.000000000000000E+20
 20
1.000000000000000E+20
 30
1.000000000000000E+20
  9
$EXTMAX
 10
-1.000000000000000E+20
 20
-1.000000000000000E+20
 30
-1.000000000000000E+20
  9
$LIMMIN
 10
0.0
 20
0.0
  9
$LIMMAX
 10
12.0
 20
9.0
  9
$ORTHOMODE
 70
     0
  9
$REGENMODE
 70
     1
  9
$FILLMODE
 70
     1
  9
$QTEXTMODE
 70
     0
  9
$MIRRTEXT
 70
     1
  9
$LTSCALE
 40
1.0
  9
$ATTMODE
 70
     1
  9
$TEXTSIZE
 40
0.2
  9
$TRACEWID
 40
0.05
  9
$TEXTSTYLE
  7
Standard
  9
$CLAYER
  8
0
  9
$CELTYPE
  6
ByLayer
  9
$CECOLOR
 62
   256
  9
$CELTSCALE
 40
1.0
  9
$DISPSILH
 70
     0
  9
$DIMSCALE
 40
1.0
  9
$DIMASZ
 40
0.18
  9
$DIMEXO
 40
0.0625
  9
$DIMDLI
 40
0.38
  9
$DIMRND
 40
0.0
  9
$DIMDLE
 40
0.0
  9
$DIMEXE
 40
0.18
  9
$DIMTP
 40
0.0
  9
$DIMTM
 40
0.0
  9
$DIMTXT
 40
0.18
  9
$DIMCEN
 40
0.09
  9
$DIMTSZ
 40
0.0
  9
$DIMTOL
 70
     0
  9
$DIMLIM
 70
     0
  9
$DIMTIH
 70
     1
  9
$DIMTOH
 70
     1
  9
$DIMSE1
 70
     0
  9
$DIMSE2
 70
     0
  9
$DIMTAD
 70
     0
  9
$DIMZIN
 70
     0
  9
$DIMBLK
  1

  9
$DIMASO
 70
     1
  9
$DIMSHO
 70
     1
  9
$DIMPOST
  1

  9
$DIMAPOST
  1

  9
$DIMALT
 70
     0
  9
$DIMALTD
 70
     2
  9
$DIMALTF
 40
25.4
  9
$DIMLFAC
 40
1.0
  9
$DIMTOFL
 70
     0
  9
$DIMTVP
 40
0.0
  9
$DIMTIX
 70
     0
  9
$DIMSOXD
 70
     0
  9
$DIMSAH
 70
     0
  9
$DIMBLK1
  1

  9
$DIMBLK2
  1

  9
$DIMSTYLE
  2
Standard
  9
$DIMCLRD
 70
     0
  9
$DIMCLRE
 70
     0
  9
$DIMCLRT
 70
     0
  9
$DIMTFAC
 40
1.0
  9
$DIMGAP
 40
0.09
  9
$DIMJUST
 70
     0
  9
$DIMSD1
 70
     0
  9
$DIMSD2
 70
     0
  9
$DIMTOLJ
 70
     1
  9
$DIMTZIN
 70
     0
  9
$DIMALTZ
 70
     0
  9
$DIMALTTZ
 70
     0
  9
$DIMUPT
 70
     0
  9
$DIMDEC
 70
     4
  9
$DIMTDEC
 70
     4
  9
$DIMALTU
 70
     2
  9
$DIMALTTD
 70
     2
  9
$DIMTXSTY
  7
Standard
  9
$DIMAUNIT
 70
     0
  9
$DIMADEC
 70
     0
  9
$DIMALTRND
 40
0.0
  9
$DIMAZIN
 70
     0
  9
$DIMDSEP
 70
    46
  9
$DIMATFIT
 70
     3
  9
$DIMFRAC
 70
     0
  9
$DIMLDRBLK
  1

  9
$DIMLUNIT
 70
     2
  9
$DIMLWD
 70
    -2
  9
$DIMLWE
 70
    -2
  9
$DIMTMOVE
 70
     0
  9
$DIMFXL
 40
1.0
  9
$DIMFXLON
 70
     0
  9
$DIMJOGANG
 40
0.7853981633974483
  9
$DIMTFILL
 70
     0
  9
$DIMTFILLCLR
 70
     0
  9
$DIMARCSYM
 70
     0
  9
$DIMLTYPE
  6

  9
$DIMLTEX1
  6

  9
$DIMLTEX2
  6

  9
$DIMTXTDIRECTION
 70
     0
  9
$LUNITS
 70
     2
  9
$LUPREC
 70
     4
  9
$SKETCHINC
 40
0.1
  9
$FILLETRAD
 40
0.5
  9
$AUNITS
 70
     0
  9
$AUPREC
 70
     0
  9
$MENU
  1
.
  9
$ELEVATION
 40
0.0
  9
$PELEVATION
 40
0.0
  9
$THICKNESS
 40
0.0
  9
$LIMCHECK
 70
     0
  9
$CHAMFERA
 40
0.5
  9
$CHAMFERB
 40
0.5
  9
$CHAMFERC
 40
1.0
  9
$CHAMFERD
 40
0.0
  9
$SKPOLY
 70
     0
  9
$TDCREATE
 40
2456993.578561343
  9
$TDUCREATE
 40
2456993.141061343
  9
$TDUPDATE
 40
2456993.578561516
  9
$TDUUPDATE
 40
2456993.141061516
  9
$TDINDWG
 40
0.0000000116
  9
$TDUSRTIMER
 40
0.0000000116
  9
$USRTIMER
 70
     1
  9
$ANGBASE
 50
0.0
  9
$ANGDIR
 70
     0
  9
$PDMODE
 70
     0
  9
$PDSIZE
 40
0.0
  9
$PLINEWID
 40
0.0
  9
$SPLFRAME
 70
     0
  9
$SPLINETYPE
 70
     6
  9
$SPLINESEGS
 70
     8
  9
$HANDSEED
  5
3C6
  9
$SURFTAB1
 70
     6
  9
$SURFTAB2
 70
     6
  9
$SURFTYPE
 70
     6
  9
$SURFU
 70
     6
  9
$SURFV
 70
     6
  9
$UCSBASE
  2

  9
$UCSNAME
  2

  9
$UCSORG
 10
0.0
 20
0.0
 30
0.0
  9
$UCSXDIR
 10
1.0
 20
0.0
 30
0.0
  9
$UCSYDIR
 10
0.0
 20
1.0
 30
0.0
  9
$UCSORTHOREF
  2

  9
$UCSORTHOVIEW
 70
     0
  9
$UCSORGTOP
 10
0.0
 20
0.0
 30
0.0
  9
$UCSORGBOTTOM
 10
0.0
 20
0.0
 30
0.0
  9
$UCSORGLEFT
 10
0.0
 20
0.0
 30
0.0
  9
$UCSORGRIGHT
 10
0.0
 20
0.0
 30
0.0
  9
$UCSORGFRONT
 10
0.0
 20
0.0
 30
0.0
  9
$UCSORGBACK
 10
0.0
 20
0.0
 30
0.0
  9
$PUCSBASE
  2

  9
$PUCSNAME
  2

  9
$PUCSORG
 10
0.0
 20
0.0
 30
0.0
  9
$PUCSXDIR
 10
1.0
 20
0.0
 30
0.0
  9
$PUCSYDIR
 10
0.0
 20
1.0
 30
0.0
  9
$PUCSORTHOREF
  2

  9
$PUCSORTHOVIEW
 70
     0
  9
$PUCSORGTOP
 10
0.0
 20
0.0
 30
0.0
  9
$PUCSORGBOTTOM
 10
0.0
 20
0.0
 30
0.0
  9
$PUCSORGLEFT
 10
0.0
 20
0.0
 30
0.0
  9
$PUCSORGRIGHT
 10
0.0
 20
0.0
 30
0.0
  9
$PUCSORGFRONT
 10
0.0
 20
0.0
 30
0.0
  9
$PUCSORGBACK
 10
0.0
 20
0.0
 30
0.0
  9
$USERI1
 70
     0
  9
$USERI2
 70
     0
  9
$USERI3
 70
     0
  9
$USERI4
 70
     0
  9
$USERI5
 70
     0
  9
$USERR1
 40
0.0
  9
$USERR2
 40
0.0
  9
$USERR3
 40
0.0
  9
$USERR4
 40
0.0
  9
$USERR5
 40
0.0
  9
$WORLDVIEW
 70
     1
  9
$SHADEDGE
 70
     3
  9
$SHADEDIF
 70
    70
  9
$TILEMODE
 70
     1
  9
$MAXACTVP
 70
    64
  9
$PINSBASE
 10
0.0
 20
0.0
 30
0.0
  9
$PLIMCHECK
 70
     0
  9
$PEXTMIN
 10
1.000000000000000E+20
 20
1.000000000000000E+20
 30
1.000000000000000E+20
  9
$PEXTMAX
 10
-1.000000000000000E+20
 20
-1.000000000000000E+20
 30
-1.000000000000000E+20
  9
$PLIMMIN
 10
0.0
 20
0.0
  9
$PLIMMAX
 10
12.0
 20
9.0
  9
$UNITMODE
 70
     0
  9
$VISRETAIN
 70
     1
  9
$PLINEGEN
 70
     0
  9
$PSLTSCALE
 70
     1
  9
$TREEDEPTH
 70
  3020
  9
$CMLSTYLE
  2
Standard
  9
$CMLJUST
 70
     0
  9
$CMLSCALE
 40
1.0
  9
$PROXYGRAPHICS
 70
     1
  9
$MEASUREMENT
 70
     0
  9
$CELWEIGHT
370
    -1
  9
$ENDCAPS
280
     0
  9
$JOINSTYLE
280
     0
  9
$LWDISPLAY
290
     1
  9
$INSUNITS
 70
     1
  9
$HYPERLINKBASE
  1

  9
$STYLESHEET
  1

  9
$XEDIT
290
     1
  9
$CEPSNTYPE
380
     0
  9
$PSTYLEMODE
290
     1
  9
$FINGERPRINTGUID
  2
{C512F6EA-4AE4-42D2-81B8-E5F5FB4A77AF}
  9
$VERSIONGUID
  2
{FAEB1C32-E019-11D5-929B-00C0DF256EC4}
  9
$EXTNAMES
290
     1
  9
$PSVPSCALE
 40
0.0
  9
$OLESTARTUP
290
     0
  9
$SORTENTS
280
   127
  9
$INDEXCTL
280
     0
  9
$HIDETEXT
280
     1
  9
$XCLIPFRAME
280
     2
  9
$HALOGAP
280
     0
  9
$OBSCOLOR
 70
   257
  9
$OBSLTYPE
280
     0
  9
$INTERSECTIONDISPLAY
280
     0
  9
$INTERSECTIONCOLOR
 70
   257
  9
$DIMASSOC
280
     2
  9
$PROJECTNAME
  1

  9
$CAMERADISPLAY
290
     0
  9
$LENSLENGTH
 40
50.0
  9
$CAMERAHEIGHT
 40
0.0
  9
$STEPSPERSEC
 40
2.0
  9
$STEPSIZE
 40
6.0
  9
$3DDWFPREC
 40
2.0
  9
$PSOLWIDTH
 40
0.25
  9
$PSOLHEIGHT
 40
4.0
  9
$LOFTANG1
 40
1.570796326794897
  9
$LOFTANG2
 40
1.570796326794897
  9
$LOFTMAG1
 40
0.0
  9
$LOFTMAG2
 40
0.0
  9
$LOFTPARAM
 70
     7
  9
$LOFTNORMALS
280
     1
  9
$LATITUDE
 40
37.795
  9
$LONGITUDE
 40
-122.394
  9
$NORTHDIRECTION
 40
0.0
  9
$TIMEZONE
 70
 -8000
  9
$LIGHTGLYPHDISPLAY
280
     1
  9
$TILEMODELIGHTSYNCH
280
     1
  9
$CMATERIAL
347
3C
  9
$SOLIDHIST
280
     1
  9
$SHOWHIST
280
     1
  9
$DWFFRAME
280
     2
  9
$DGNFRAME
280
     2
  9
$REALWORLDSCALE
290
     1
  9
$INTERFERECOLOR
 62
   256
  9
$CSHADOW
280
     0
  9
$SHADOWPLANELOCATION
 40
0.0
  0
ENDSEC
  0
SECTION
  2
CLASSES
  0
CLASS
  1
ACDBDICTIONARYWDFLT
  2
AcDbDictionaryWithDefault
  3
ObjectDBX Classes
 90
        0
 91
        4
280
     0
281
     0
  0
CLASS
  1
VISUALSTYLE
  2
AcDbVisualStyle
  3
ObjectDBX Classes
 90
     4095
 91
        4
280
     0
281
     0
  0
CLASS
  1
MATERIAL
  2
AcDbMaterial
  3
ObjectDBX Classes
 90
     1153
 91
        4
280
     0
281
     0
  0
CLASS
  1
SUN
  2
AcDbSun
  3
SCENEOE
 90
     1024
 91
        4
280
     0
281
     0
  0
ENDSEC
  0
SECTION
  2
TABLES
  0
TABLE
  2
VPORT
  5
8
330
0
100
AcDbSymbolTable
 70
     1
  0
VPORT
  5
29
330
8
100
AcDbSymbolTableRecord
100
AcDbViewportTableRecord
  2
*Active
 70
     0
 10
0.0
 20
0.0
 11
1.0
 21
1.0
 12
0.0
 22
0.0
 13
0.0
 23
0.0
 14
0.5
 24
0.5
 15
0.5
 25
0.5
 16
0.0
 26
0.0
 36
1.0
 17
481.3131122571961
 27
139.9268612594266
 37
0.0
 40
1280.327267559677
 41
1.532343801652891
 42
50.0
 43
0.0
 44
0.0
 50
0.0
 51
0.0
 71
     0
 72
   100
 73
     1
 74
     3
 75
     0
 76
     0
 77
     0
 78
     0
281
     0
 65
     1
110
0.0
120
0.0
130
0.0
111
1.0
121
0.0
131
0.0
112
0.0
122
1.0
132
0.0
 79
     0
146
0.0
 60
     3
 61
     5
292
     1
282
     1
141
0.0
142
0.0
 63
   250
361
3F
  0
ENDTAB
  0
TABLE
  2
LTYPE
  5
5
330
0
100
AcDbSymbolTable
 70
     1
  0
LTYPE
  5
14
330
5
100
AcDbSymbolTableRecord
100
AcDbLinetypeTableRecord
  2
ByBlock
 70
     0
  3

 72
    65
 73
     0
 40
0.0
  0
LTYPE
  5
15
330
5
100
AcDbSymbolTableRecord
100
AcDbLinetypeTableRecord
  2
ByLayer
 70
     0
  3

 72
    65
 73
     0
 40
0.0
  0
LTYPE
  5
16
330
5
100
AcDbSymbolTableRecord
100
AcDbLinetypeTableRecord
  2
Continuous
 70
     0
  3
Solid line
 72
    65
 73
     0
 40
0.0
  0
ENDTAB
  0
TABLE
  2
LAYER
  5
2
330
0
100
AcDbSymbolTable
 70
     2
  0
LAYER
  5
10
330
2
100
AcDbSymbolTableRecord
100
AcDbLayerTableRecord
  2
0
 70
     0
 62
     7
  6
Continuous
370
    -3
390
F
347
3E
  0
LAYER
  5
40
330
2
100
AcDbSymbolTableRecord
100
AcDbLayerTableRecord
  2
Layer 1
 70
     0
 62
     7
  6
Continuous
370
    -3
390
F
347
3E
  0
ENDTAB
  0
TABLE
  2
STYLE
  5
3
330
0
100
AcDbSymbolTable
 70
     1
  0
STYLE
  5
11
330
3
100
AcDbSymbolTableRecord
100
AcDbTextStyleTableRecord
  2
Standard
 70
     0
 40
0.0
 41
1.0
 50
0.0
 71
     0
 42
0.2
  3
txt
  4

  0
ENDTAB
  0
TABLE
  2
VIEW
  5
6
330
0
100
AcDbSymbolTable
 70
     0
  0
ENDTAB
  0
TABLE
  2
UCS
  5
7
330
0
100
AcDbSymbolTable
 70
     0
  0
ENDTAB
  0
TABLE
  2
APPID
  5
9
330
0
100
AcDbSymbolTable
 70
     1
  0
APPID
  5
12
330
9
100
AcDbSymbolTableRecord
100
AcDbRegAppTableRecord
  2
ACAD
 70
     0
  0
ENDTAB
  0
TABLE
  2
DIMSTYLE
  5
A
330
0
100
AcDbSymbolTable
 70
     1
100
AcDbDimStyleTable
  0
DIMSTYLE
105
27
330
A
100
AcDbSymbolTableRecord
100
AcDbDimStyleTableRecord
  2
Standard
 70
     0
178
     0
340
11
  0
ENDTAB
  0
TABLE
  2
BLOCK_RECORD
  5
1
330
0
100
AcDbSymbolTable
 70
    47
  0
BLOCK_RECORD
  5
1F
330
1
100
AcDbSymbolTableRecord
100
AcDbBlockTableRecord
  2
*Model_Space
340
22
 70
     0
280
     1
281
     0
  0
BLOCK_RECORD
  5
1B
330
1
100
AcDbSymbolTableRecord
100
AcDbBlockTableRecord
  2
*Paper_Space
340
1E
 70
     0
280
     1
281
     0
  0
BLOCK_RECORD
  5
23
330
1
100
AcDbSymbolTableRecord
100
AcDbBlockTableRecord
  2
*Paper_Space0
340
26
 70
     0
280
     1
281
     0
  0
BLOCK_RECORD
  5
224
330
1
100
AcDbSymbolTableRecord
100
AcDbBlockTableRecord
  2
block 2
340
0
102
{BLKREFS
331
225
102
}
 70
     0
280
     1
281
     0
  0
BLOCK_RECORD
  5
22C
330
1
100
AcDbSymbolTableRecord
100
AcDbBlockTableRecord
  2
block 3
340
0
102
{BLKREFS
331
22D
102
}
 70
     0
280
     1
281
     0
  0
BLOCK_RECORD
  5
237
330
1
100
AcDbSymbolTableRecord
100
AcDbBlockTableRecord
  2
block 4
340
0
102
{BLKREFS
331
238
102
}
 70
     0
280
     1
281
     0
  0
BLOCK_RECORD
  5
23F
330
1
100
AcDbSymbolTableRecord
100
AcDbBlockTableRecord
  2
block 5
340
0
102
{BLKREFS
331
240
102
}
 70
     0
280
     1
281
     0
  0
BLOCK_RECORD
  5
24A
330
1
100
AcDbSymbolTableRecord
100
AcDbBlockTableRecord
  2
block 6
340
0
102
{BLKREFS
331
24B
102
}
 70
     0
280
     1
281
     0
  0
BLOCK_RECORD
  5
252
330
1
100
AcDbSymbolTableRecord
100
AcDbBlockTableRecord
  2
block 7
340
0
102
{BLKREFS
331
253
102
}
 70
     0
280
     1
281
     0
  0
BLOCK_RECORD
  5
25D
330
1
100
AcDbSymbolTableRecord
100
AcDbBlockTableRecord
  2
block 8
340
0
102
{BLKREFS
331
25E
102
}
 70
     0
280
     1
281
     0
  0
BLOCK_RECORD
  5
265
330
1
100
AcDbSymbolTableRecord
100
AcDbBlockTableRecord
  2
block 9
340
0
102
{BLKREFS
331
266
102
}
 70
     0
280
     1
281
     0
  0
BLOCK_RECORD
  5
270
330
1
100
AcDbSymbolTableRecord
100
AcDbBlockTableRecord
  2
block 10
340
0
102
{BLKREFS
331
271
102
}
 70
     0
280
     1
281
     0
  0
BLOCK_RECORD
  5
278
330
1
100
AcDbSymbolTableRecord
100
AcDbBlockTableRecord
  2
block 11
340
0
102
{BLKREFS
331
279
102
}
 70
     0
280
     1
281
     0
  0
BLOCK_RECORD
  5
283
330
1
100
AcDbSymbolTableRecord
100
AcDbBlockTableRecord
  2
block 12
340
0
102
{BLKREFS
331
284
102
}
 70
     0
280
     1
281
     0
  0
BLOCK_RECORD
  5
28B
330
1
100
AcDbSymbolTableRecord
100
AcDbBlockTableRecord
  2
block 13
340
0
102
{BLKREFS
331
28C
102
}
 70
     0
280
     1
281
     0
  0
BLOCK_RECORD
  5
2B1
330
1
100
AcDbSymbolTableRecord
100
AcDbBlockTableRecord
  2
block 14
340
0
102
{BLKREFS
331
2B2
102
}
 70
     0
280
     1
281
     0
  0
BLOCK_RECORD
  5
2B9
330
1
100
AcDbSymbolTableRecord
100
AcDbBlockTableRecord
  2
block 15
340
0
102
{BLKREFS
331
2BA
102
}
 70
     0
280
     1
281
     0
  0
BLOCK_RECORD
  5
2C4
330
1
100
AcDbSymbolTableRecord
100
AcDbBlockTableRecord
  2
block 16
340
0
102
{BLKREFS
331
2C5
102
}
 70
     0
280
     1
281
     0
  0
BLOCK_RECORD
  5
2CC
330
1
100
AcDbSymbolTableRecord
100
AcDbBlockTableRecord
  2
block 17
340
0
102
{BLKREFS
331
2CD
102
}
 70
     0
280
     1
281
     0
  0
BLOCK_RECORD
  5
2D7
330
1
100
AcDbSymbolTableRecord
100
AcDbBlockTableRecord
  2
block 18
340
0
102
{BLKREFS
331
2D8
102
}
 70
     0
280
     1
281
     0
  0
BLOCK_RECORD
  5
2DF
330
1
100
AcDbSymbolTableRecord
100
AcDbBlockTableRecord
  2
block 19
340
0
102
{BLKREFS
331
2E0
102
}
 70
     0
280
     1
281
     0
  0
BLOCK_RECORD
  5
2EA
330
1
100
AcDbSymbolTableRecord
100
AcDbBlockTableRecord
  2
block 20
340
0
102
{BLKREFS
331
2EB
102
}
 70
     0
280
     1
281
     0
  0
BLOCK_RECORD
  5
2F2
330
1
100
AcDbSymbolTableRecord
100
AcDbBlockTableRecord
  2
block 21
340
0
102
{BLKREFS
331
2F3
102
}
 70
     0
280
     1
281
     0
  0
BLOCK_RECORD
  5
2FD
330
1
100
AcDbSymbolTableRecord
100
AcDbBlockTableRecord
  2
block 22
340
0
102
{BLKREFS
331
2FE
102
}
 70
     0
280
     1
281
     0
  0
BLOCK_RECORD
  5
305
330
1
100
AcDbSymbolTableRecord
100
AcDbBlockTableRecord
  2
block 23
340
0
102
{BLKREFS
331
306
102
}
 70
     0
280
     1
281
     0
  0
BLOCK_RECORD
  5
310
330
1
100
AcDbSymbolTableRecord
100
AcDbBlockTableRecord
  2
block 24
340
0
102
{BLKREFS
331
311
102
}
 70
     0
280
     1
281
     0
  0
BLOCK_RECORD
  5
318
330
1
100
AcDbSymbolTableRecord
100
AcDbBlockTableRecord
  2
block 25
340
0
102
{BLKREFS
331
319
102
}
 70
     0
280
     1
281
     0
  0
BLOCK_RECORD
  5
324
330
1
100
AcDbSymbolTableRecord
100
AcDbBlockTableRecord
  2
block 26
340
0
102
{BLKREFS
331
325
102
}
 70
     0
280
     1
281
     0
  0
BLOCK_RECORD
  5
32D
330
1
100
AcDbSymbolTableRecord
100
AcDbBlockTableRecord
  2
block 27
340
0
102
{BLKREFS
331
32E
102
}
 70
     0
280
     1
281
     0
  0
BLOCK_RECORD
  5
342
330
1
100
AcDbSymbolTableRecord
100
AcDbBlockTableRecord
  2
block 28
340
0
102
{BLKREFS
331
343
102
}
 70
     0
280
     1
281
     0
  0
BLOCK_RECORD
  5
34A
330
1
100
AcDbSymbolTableRecord
100
AcDbBlockTableRecord
  2
block 29
340
0
102
{BLKREFS
331
34B
102
}
 70
     0
280
     1
281
     0
  0
BLOCK_RECORD
  5
355
330
1
100
AcDbSymbolTableRecord
100
AcDbBlockTableRecord
  2
block 30
340
0
102
{BLKREFS
331
356
102
}
 70
     0
280
     1
281
     0
  0
BLOCK_RECORD
  5
35D
330
1
100
AcDbSymbolTableRecord
100
AcDbBlockTableRecord
  2
block 31
340
0
102
{BLKREFS
331
35E
102
}
 70
     0
280
     1
281
     0
  0
BLOCK_RECORD
  5
368
330
1
100
AcDbSymbolTableRecord
100
AcDbBlockTableRecord
  2
block 32
340
0
102
{BLKREFS
331
369
102
}
 70
     0
280
     1
281
     0
  0
BLOCK_RECORD
  5
36D
330
1
100
AcDbSymbolTableRecord
100
AcDbBlockTableRecord
  2
block 33
340
0
102
{BLKREFS
331
36E
102
}
 70
     0
280
     1
281
     0
  0
BLOCK_RECORD
  5
372
330
1
100
AcDbSymbolTableRecord
100
AcDbBlockTableRecord
  2
block 34
340
0
102
{BLKREFS
331
373
102
}
 70
     0
280
     1
281
     0
  0
BLOCK_RECORD
  5
378
330
1
100
AcDbSymbolTableRecord
100
AcDbBlockTableRecord
  2
block 35
340
0
102
{BLKREFS
331
379
102
}
 70
     0
280
     1
281
     0
  0
BLOCK_RECORD
  5
37D
330
1
100
AcDbSymbolTableRecord
100
AcDbBlockTableRecord
  2
block 36
340
0
102
{BLKREFS
331
37E
102
}
 70
     0
280
     1
281
     0
  0
BLOCK_RECORD
  5
382
330
1
100
AcDbSymbolTableRecord
100
AcDbBlockTableRecord
  2
block 37
340
0
102
{BLKREFS
331
383
102
}
 70
     0
280
     1
281
     0
  0
BLOCK_RECORD
  5
387
330
1
100
AcDbSymbolTableRecord
100
AcDbBlockTableRecord
  2
block 38
340
0
102
{BLKREFS
331
388
102
}
 70
     0
280
     1
281
     0
  0
BLOCK_RECORD
  5
38C
330
1
100
AcDbSymbolTableRecord
100
AcDbBlockTableRecord
  2
block 39
340
0
102
{BLKREFS
331
38D
102
}
 70
     0
280
     1
281
     0
  0
BLOCK_RECORD
  5
391
330
1
100
AcDbSymbolTableRecord
100
AcDbBlockTableRecord
  2
block 40
340
0
102
{BLKREFS
331
392
102
}
 70
     0
280
     1
281
     0
  0
BLOCK_RECORD
  5
396
330
1
100
AcDbSymbolTableRecord
100
AcDbBlockTableRecord
  2
block 41
340
0
102
{BLKREFS
331
397
102
}
 70
     0
280
     1
281
     0
  0
BLOCK_RECORD
  5
39B
330
1
100
AcDbSymbolTableRecord
100
AcDbBlockTableRecord
  2
block 42
340
0
102
{BLKREFS
331
39C
102
}
 70
     0
280
     1
281
     0
  0
BLOCK_RECORD
  5
3A7
330
1
100
AcDbSymbolTableRecord
100
AcDbBlockTableRecord
  2
block 43
340
0
102
{BLKREFS
331
3A8
102
}
 70
     0
280
     1
281
     0
  0
BLOCK_RECORD
  5
3AC
330
1
100
AcDbSymbolTableRecord
100
AcDbBlockTableRecord
  2
block 44
340
0
102
{BLKREFS
331
3AD
102
}
 70
     0
280
     1
281
     0
  0
BLOCK_RECORD
  5
3B1
330
1
100
AcDbSymbolTableRecord
100
AcDbBlockTableRecord
  2
block 45
340
0
102
{BLKREFS
331
3B2
102
}
 70
     0
280
     1
281
     0
  0
BLOCK_RECORD
  5
3B6
330
1
100
AcDbSymbolTableRecord
100
AcDbBlockTableRecord
  2
block 46
340
0
102
{BLKREFS
331
3B7
102
}
 70
     0
280
     1
281
     0
  0
BLOCK_RECORD
  5
3BB
330
1
100
AcDbSymbolTableRecord
100
AcDbBlockTableRecord
  2
block 47
340
0
102
{BLKREFS
331
3BC
102
}
 70
     0
280
     1
281
     0
  0
ENDTAB
  0
ENDSEC
  0
SECTION
  2
BLOCKS
  0
BLOCK
  5
20
330
1F
100
AcDbEntity
  8
0
100
AcDbBlockBegin
  2
*Model_Space
 70
     0
 10
0.0
 20
0.0
 30
0.0
  3
*Model_Space
  1

  0
ENDBLK
  5
21
330
1F
100
AcDbEntity
  8
0
100
AcDbBlockEnd
  0
BLOCK
  5
1C
330
1B
100
AcDbEntity
 67
     1
  8
0
100
AcDbBlockBegin
  2
*Paper_Space
 70
     0
 10
0.0
 20
0.0
 30
0.0
  3
*Paper_Space
  1

  0
ENDBLK
  5
1D
330
1B
100
AcDbEntity
 67
     1
  8
0
100
AcDbBlockEnd
  0
BLOCK
  5
24
330
23
100
AcDbEntity
  8
0
100
AcDbBlockBegin
  2
*Paper_Space0
 70
     0
 10
0.0
 20
0.0
 30
0.0
  3
*Paper_Space0
  1

  0
ENDBLK
  5
25
330
23
100
AcDbEntity
  8
0
100
AcDbBlockEnd
  0
BLOCK
  5
226
330
224
100
AcDbEntity
  8
0
100
AcDbBlockBegin
  2
block 2
 70
     0
 10
0.0
 20
0.0
 30
0.0
  3
block 2
  1

  0
POLYLINE
  5
228
330
224
100
AcDbEntity
  8
Layer 1
 62
     7
420
 16777215
370
    20
100
AcDb2dPolyline
 66
     1
 10
0.0
 20
0.0
 30
0.0
  0
VERTEX
  5
229
330
228
100
AcDbEntity
  8
Layer 1
 62
     7
420
 16777215
370
    20
100
AcDbVertex
100
AcDb2dVertex
 10
68.8609074084866
 20
551.3473996296262
 30
0.0
  0
VERTEX
  5
22A
330
228
100
AcDbEntity
  8
Layer 1
 62
     7
420
 16777215
370
    20
100
AcDbVertex
100
AcDb2dVertex
 10
68.8609074084866
 20
388.0411963251832
 30
0.0
  0
SEQEND
  5
22B
330
228
100
AcDbEntity
  8
Layer 1
 62
     7
420
 16777215
370
    20
  0
INSERT
  5
22D
330
224
100
AcDbEntity
  8
Layer 1
100
AcDbBlockReference
  2
block 3
 10
0.0
 20
0.0
 30
0.0
  0
ENDBLK
  5
227
330
224
100
AcDbEntity
  8
0
100
AcDbBlockEnd
  0
BLOCK
  5
22E
330
22C
100
AcDbEntity
  8
0
100
AcDbBlockBegin
  2
block 3
 70
     0
 10
0.0
 20
0.0
 30
0.0
  3
block 3
  1

  0
POLYLINE
  5
230
330
22C
100
AcDbEntity
  8
Layer 1
370
     0
100
AcDb2dPolyline
 66
     1
 10
0.0
 20
0.0
 30
0.0
  0
VERTEX
  5
231
330
230
100
AcDbEntity
  8
Layer 1
370
     0
100
AcDbVertex
100
AcDb2dVertex
 10
64.97039650137692
 20
548.6939798963269
 30
0.0
  0
VERTEX
  5
232
330
230
100
AcDbEntity
  8
Layer 1
370
     0
100
AcDbVertex
100
AcDb2dVertex
 10
68.8609074084866
 20
563.2111629153072
 30
0.0
  0
VERTEX
  5
233
330
230
100
AcDbEntity
  8
Layer 1
370
     0
100
AcDbVertex
100
AcDb2dVertex
 10
72.75140029454428
 20
548.6939798963269
 30
0.0
  0
VERTEX
  5
234
330
230
100
AcDbEntity
  8
Layer 1
370
     0
100
AcDbVertex
100
AcDb2dVertex
 10
64.97039650137692
 20
548.6939798963269
 30
0.0
  0
SEQEND
  5
236
330
230
100
AcDbEntity
  8
Layer 1
370
     0
  0
HATCH
  5
235
330
22C
100
AcDbEntity
  8
Layer 1
 62
     7
420
 16777215
100
AcDbHatch
 10
0.0
 20
0.0
 30
0.0
210
0.0
220
0.0
230
1.0
  2
SOLID
 70
     1
 71
     0
 91
        1
 92
        1
 93
        3
 72
     1
 10
64.97039650137692
 20
548.6939798963269
 11
68.8609074084866
 21
563.2111629153072
 72
     1
 10
68.8609074084866
 20
563.2111629153072
 11
72.75140029454428
 21
548.6939798963269
 72
     1
 10
72.75140029454428
 20
548.6939798963269
 11
64.97039650137692
 21
548.6939798963269
 97
        0
 75
     2
 76
     1
 98
        0
  0
ENDBLK
  5
22F
330
22C
100
AcDbEntity
  8
0
100
AcDbBlockEnd
  0
BLOCK
  5
239
330
237
100
AcDbEntity
  8
0
100
AcDbBlockBegin
  2
block 4
 70
     0
 10
0.0
 20
0.0
 30
0.0
  3
block 4
  1

  0
POLYLINE
  5
23B
330
237
100
AcDbEntity
  8
Layer 1
 62
     7
420
 16777215
370
    20
100
AcDb2dPolyline
 66
     1
 10
0.0
 20
0.0
 30
0.0
  0
VERTEX
  5
23C
330
23B
100
AcDbEntity
  8
Layer 1
 62
     7
420
 16777215
370
    20
100
AcDbVertex
100
AcDb2dVertex
 10
114.7046261853242
 20
626.4607312604965
 30
0.0
  0
VERTEX
  5
23D
330
23B
100
AcDbEntity
  8
Layer 1
 62
     7
420
 16777215
370
    20
100
AcDbVertex
100
AcDb2dVertex
 10
114.7046261853242
 20
552.4401962380715
 30
0.0
  0
SEQEND
  5
23E
330
23B
100
AcDbEntity
  8
Layer 1
 62
     7
420
 16777215
370
    20
  0
INSERT
  5
240
330
237
100
AcDbEntity
  8
Layer 1
100
AcDbBlockReference
  2
block 5
 10
0.0
 20
0.0
 30
0.0
  0
ENDBLK
  5
23A
330
237
100
AcDbEntity
  8
0
100
AcDbBlockEnd
  0
BLOCK
  5
241
330
23F
100
AcDbEntity
  8
0
100
AcDbBlockBegin
  2
block 5
 70
     0
 10
0.0
 20
0.0
 30
0.0
  3
block 5
  1

  0
POLYLINE
  5
243
330
23F
100
AcDbEntity
  8
Layer 1
370
     0
100
AcDb2dPolyline
 66
     1
 10
0.0
 20
0.0
 30
0.0
  0
VERTEX
  5
244
330
243
100
AcDbEntity
  8
Layer 1
370
     0
100
AcDbVertex
100
AcDb2dVertex
 10
110.8141152782142
 20
623.8073115271968
 30
0.0
  0
VERTEX
  5
245
330
243
100
AcDbEntity
  8
Layer 1
370
     0
100
AcDbVertex
100
AcDb2dVertex
 10
114.7046261853242
 20
638.3244945461773
 30
0.0
  0
VERTEX
  5
246
330
243
100
AcDbEntity
  8
Layer 1
370
     0
100
AcDbVertex
100
AcDb2dVertex
 10
118.5951190713819
 20
623.8073115271968
 30
0.0
  0
VERTEX
  5
247
330
243
100
AcDbEntity
  8
Layer 1
370
     0
100
AcDbVertex
100
AcDb2dVertex
 10
110.8141152782142
 20
623.8073115271968
 30
0.0
  0
SEQEND
  5
249
330
243
100
AcDbEntity
  8
Layer 1
370
     0
  0
HATCH
  5
248
330
23F
100
AcDbEntity
  8
Layer 1
 62
     7
420
 16777215
100
AcDbHatch
 10
0.0
 20
0.0
 30
0.0
210
0.0
220
0.0
230
1.0
  2
SOLID
 70
     1
 71
     0
 91
        1
 92
        1
 93
        3
 72
     1
 10
110.8141152782142
 20
623.8073115271968
 11
114.7046261853242
 21
638.3244945461773
 72
     1
 10
114.7046261853242
 20
638.3244945461773
 11
118.5951190713819
 21
623.8073115271968
 72
     1
 10
118.5951190713819
 20
623.8073115271968
 11
110.8141152782142
 21
623.8073115271968
 97
        0
 75
     2
 76
     1
 98
        0
  0
ENDBLK
  5
242
330
23F
100
AcDbEntity
  8
0
100
AcDbBlockEnd
  0
BLOCK
  5
24C
330
24A
100
AcDbEntity
  8
0
100
AcDbBlockBegin
  2
block 6
 70
     0
 10
0.0
 20
0.0
 30
0.0
  3
block 6
  1

  0
POLYLINE
  5
24E
330
24A
100
AcDbEntity
  8
Layer 1
 62
     7
420
 16777215
370
    20
100
AcDb2dPolyline
 66
     1
 10
0.0
 20
0.0
 30
0.0
  0
VERTEX
  5
24F
330
24E
100
AcDbEntity
  8
Layer 1
 62
     7
420
 16777215
370
    20
100
AcDbVertex
100
AcDb2dVertex
 10
114.7046261853242
 20
451.843650536164
 30
0.0
  0
VERTEX
  5
250
330
24E
100
AcDbEntity
  8
Layer 1
 62
     7
420
 16777215
370
    20
100
AcDbVertex
100
AcDb2dVertex
 10
114.7046261853242
 20
493.8820078777713
 30
0.0
  0
SEQEND
  5
251
330
24E
100
AcDbEntity
  8
Layer 1
 62
     7
420
 16777215
370
    20
  0
INSERT
  5
253
330
24A
100
AcDbEntity
  8
Layer 1
100
AcDbBlockReference
  2
block 7
 10
0.0
 20
0.0
 30
0.0
  0
ENDBLK
  5
24D
330
24A
100
AcDbEntity
  8
0
100
AcDbBlockEnd
  0
BLOCK
  5
254
330
252
100
AcDbEntity
  8
0
100
AcDbBlockBegin
  2
block 7
 70
     0
 10
0.0
 20
0.0
 30
0.0
  3
block 7
  1

  0
POLYLINE
  5
256
330
252
100
AcDbEntity
  8
Layer 1
370
     0
100
AcDb2dPolyline
 66
     1
 10
0.0
 20
0.0
 30
0.0
  0
VERTEX
  5
257
330
256
100
AcDbEntity
  8
Layer 1
370
     0
100
AcDbVertex
100
AcDb2dVertex
 10
118.5951370924342
 20
454.4970702694633
 30
0.0
  0
VERTEX
  5
258
330
256
100
AcDbEntity
  8
Layer 1
370
     0
100
AcDbVertex
100
AcDb2dVertex
 10
114.7046261853242
 20
439.979887250483
 30
0.0
  0
VERTEX
  5
259
330
256
100
AcDbEntity
  8
Layer 1
370
     0
100
AcDbVertex
100
AcDb2dVertex
 10
110.8141332992665
 20
454.4970702694633
 30
0.0
  0
VERTEX
  5
25A
330
256
100
AcDbEntity
  8
Layer 1
370
     0
100
AcDbVertex
100
AcDb2dVertex
 10
118.5951370924342
 20
454.4970702694633
 30
0.0
  0
SEQEND
  5
25C
330
256
100
AcDbEntity
  8
Layer 1
370
     0
  0
HATCH
  5
25B
330
252
100
AcDbEntity
  8
Layer 1
 62
     7
420
 16777215
100
AcDbHatch
 10
0.0
 20
0.0
 30
0.0
210
0.0
220
0.0
230
1.0
  2
SOLID
 70
     1
 71
     0
 91
        1
 92
        1
 93
        3
 72
     1
 10
118.5951370924342
 20
454.4970702694633
 11
114.7046261853242
 21
439.979887250483
 72
     1
 10
114.7046261853242
 20
439.979887250483
 11
110.8141332992665
 21
454.4970702694633
 72
     1
 10
110.8141332992665
 20
454.4970702694633
 11
118.5951370924342
 21
454.4970702694633
 97
        0
 75
     2
 76
     1
 98
        0
  0
ENDBLK
  5
255
330
252
100
AcDbEntity
  8
0
100
AcDbBlockEnd
  0
BLOCK
  5
25F
330
25D
100
AcDbEntity
  8
0
100
AcDbBlockBegin
  2
block 8
 70
     0
 10
0.0
 20
0.0
 30
0.0
  3
block 8
  1

  0
POLYLINE
  5
261
330
25D
100
AcDbEntity
  8
Layer 1
 62
     7
420
 16777215
370
    20
100
AcDb2dPolyline
 66
     1
 10
0.0
 20
0.0
 30
0.0
  0
VERTEX
  5
262
330
261
100
AcDbEntity
  8
Layer 1
 62
     7
420
 16777215
370
    20
100
AcDbVertex
100
AcDb2dVertex
 10
68.8608893874343
 20
171.3522390848117
 30
0.0
  0
VERTEX
  5
263
330
261
100
AcDbEntity
  8
Layer 1
 62
     7
420
 16777215
370
    20
100
AcDbVertex
100
AcDb2dVertex
 10
68.8608893874343
 20
324.2706708790421
 30
0.0
  0
SEQEND
  5
264
330
261
100
AcDbEntity
  8
Layer 1
 62
     7
420
 16777215
370
    20
  0
INSERT
  5
266
330
25D
100
AcDbEntity
  8
Layer 1
100
AcDbBlockReference
  2
block 9
 10
0.0
 20
0.0
 30
0.0
  0
ENDBLK
  5
260
330
25D
100
AcDbEntity
  8
0
100
AcDbBlockEnd
  0
BLOCK
  5
267
330
265
100
AcDbEntity
  8
0
100
AcDbBlockBegin
  2
block 9
 70
     0
 10
0.0
 20
0.0
 30
0.0
  3
block 9
  1

  0
POLYLINE
  5
269
330
265
100
AcDbEntity
  8
Layer 1
370
     0
100
AcDb2dPolyline
 66
     1
 10
0.0
 20
0.0
 30
0.0
  0
VERTEX
  5
26A
330
269
100
AcDbEntity
  8
Layer 1
370
     0
100
AcDbVertex
100
AcDb2dVertex
 10
72.75138227349198
 20
174.0056588181113
 30
0.0
  0
VERTEX
  5
26B
330
269
100
AcDbEntity
  8
Layer 1
370
     0
100
AcDbVertex
100
AcDb2dVertex
 10
68.8608893874343
 20
159.4886199675479
 30
0.0
  0
VERTEX
  5
26C
330
269
100
AcDbEntity
  8
Layer 1
370
     0
100
AcDbVertex
100
AcDb2dVertex
 10
64.97037848032463
 20
174.0056588181113
 30
0.0
  0
VERTEX
  5
26D
330
269
100
AcDbEntity
  8
Layer 1
370
     0
100
AcDbVertex
100
AcDb2dVertex
 10
72.75138227349198
 20
174.0056588181113
 30
0.0
  0
SEQEND
  5
26F
330
269
100
AcDbEntity
  8
Layer 1
370
     0
  0
HATCH
  5
26E
330
265
100
AcDbEntity
  8
Layer 1
 62
     7
420
 16777215
100
AcDbHatch
 10
0.0
 20
0.0
 30
0.0
210
0.0
220
0.0
230
1.0
  2
SOLID
 70
     1
 71
     0
 91
        1
 92
        1
 93
        3
 72
     1
 10
72.75138227349198
 20
174.0056588181113
 11
68.8608893874343
 21
159.4886199675479
 72
     1
 10
68.8608893874343
 20
159.4886199675479
 11
64.97037848032463
 21
174.0056588181113
 72
     1
 10
64.97037848032463
 20
174.0056588181113
 11
72.75138227349198
 21
174.0056588181113
 97
        0
 75
     2
 76
     1
 98
        0
  0
ENDBLK
  5
268
330
265
100
AcDbEntity
  8
0
100
AcDbBlockEnd
  0
BLOCK
  5
272
330
270
100
AcDbEntity
  8
0
100
AcDbBlockBegin
  2
block 10
 70
     0
 10
0.0
 20
0.0
 30
0.0
  3
block 10
  1

  0
POLYLINE
  5
274
330
270
100
AcDbEntity
  8
Layer 1
 62
     7
420
 16777215
370
    20
100
AcDb2dPolyline
 66
     1
 10
0.0
 20
0.0
 30
0.0
  0
VERTEX
  5
275
330
274
100
AcDbEntity
  8
Layer 1
 62
     7
420
 16777215
370
    20
100
AcDbVertex
100
AcDb2dVertex
 10
23.98190962175229
 20
626.4607312604965
 30
0.0
  0
VERTEX
  5
276
330
274
100
AcDbEntity
  8
Layer 1
 62
     7
420
 16777215
370
    20
100
AcDbVertex
100
AcDb2dVertex
 10
23.98190962175229
 20
388.0412008132045
 30
0.0
  0
SEQEND
  5
277
330
274
100
AcDbEntity
  8
Layer 1
 62
     7
420
 16777215
370
    20
  0
INSERT
  5
279
330
270
100
AcDbEntity
  8
Layer 1
100
AcDbBlockReference
  2
block 11
 10
0.0
 20
0.0
 30
0.0
  0
ENDBLK
  5
273
330
270
100
AcDbEntity
  8
0
100
AcDbBlockEnd
  0
BLOCK
  5
27A
330
278
100
AcDbEntity
  8
0
100
AcDbBlockBegin
  2
block 11
 70
     0
 10
0.0
 20
0.0
 30
0.0
  3
block 11
  1

  0
POLYLINE
  5
27C
330
278
100
AcDbEntity
  8
Layer 1
370
     0
100
AcDb2dPolyline
 66
     1
 10
0.0
 20
0.0
 30
0.0
  0
VERTEX
  5
27D
330
27C
100
AcDbEntity
  8
Layer 1
370
     0
100
AcDbVertex
100
AcDb2dVertex
 10
20.0914167356946
 20
623.8073115271968
 30
0.0
  0
VERTEX
  5
27E
330
27C
100
AcDbEntity
  8
Layer 1
370
     0
100
AcDbVertex
100
AcDb2dVertex
 10
23.98190962175229
 20
638.3244945461773
 30
0.0
  0
VERTEX
  5
27F
330
27C
100
AcDbEntity
  8
Layer 1
370
     0
100
AcDbVertex
100
AcDb2dVertex
 10
27.87240250780966
 20
623.8073115271968
 30
0.0
  0
VERTEX
  5
280
330
27C
100
AcDbEntity
  8
Layer 1
370
     0
100
AcDbVertex
100
AcDb2dVertex
 10
20.0914167356946
 20
623.8073115271968
 30
0.0
  0
SEQEND
  5
282
330
27C
100
AcDbEntity
  8
Layer 1
370
     0
  0
HATCH
  5
281
330
278
100
AcDbEntity
  8
Layer 1
 62
     7
420
 16777215
100
AcDbHatch
 10
0.0
 20
0.0
 30
0.0
210
0.0
220
0.0
230
1.0
  2
SOLID
 70
     1
 71
     0
 91
        1
 92
        1
 93
        3
 72
     1
 10
20.0914167356946
 20
623.8073115271968
 11
23.98190962175229
 21
638.3244945461773
 72
     1
 10
23.98190962175229
 20
638.3244945461773
 11
27.87240250780966
 21
623.8073115271968
 72
     1
 10
27.87240250780966
 20
623.8073115271968
 11
20.0914167356946
 21
623.8073115271968
 97
        0
 75
     2
 76
     1
 98
        0
  0
ENDBLK
  5
27B
330
278
100
AcDbEntity
  8
0
100
AcDbBlockEnd
  0
BLOCK
  5
285
330
283
100
AcDbEntity
  8
0
100
AcDbBlockBegin
  2
block 12
 70
     0
 10
0.0
 20
0.0
 30
0.0
  3
block 12
  1

  0
POLYLINE
  5
287
330
283
100
AcDbEntity
  8
Layer 1
 62
     7
420
 16777215
370
    20
100
AcDb2dPolyline
 66
     1
 10
0.0
 20
0.0
 30
0.0
  0
VERTEX
  5
288
330
287
100
AcDbEntity
  8
Layer 1
 62
     7
420
 16777215
370
    20
100
AcDbVertex
100
AcDb2dVertex
 10
23.98187357964769
 20
141.307031678776
 30
0.0
  0
VERTEX
  5
289
330
287
100
AcDbEntity
  8
Layer 1
 62
     7
420
 16777215
370
    20
100
AcDbVertex
100
AcDb2dVertex
 10
23.98187357964769
 20
324.2706664128992
 30
0.0
  0
SEQEND
  5
28A
330
287
100
AcDbEntity
  8
Layer 1
 62
     7
420
 16777215
370
    20
  0
INSERT
  5
28C
330
283
100
AcDbEntity
  8
Layer 1
100
AcDbBlockReference
  2
block 13
 10
0.0
 20
0.0
 30
0.0
  0
ENDBLK
  5
286
330
283
100
AcDbEntity
  8
0
100
AcDbBlockEnd
  0
BLOCK
  5
28D
330
28B
100
AcDbEntity
  8
0
100
AcDbBlockBegin
  2
block 13
 70
     0
 10
0.0
 20
0.0
 30
0.0
  3
block 13
  1

  0
POLYLINE
  5
28F
330
28B
100
AcDbEntity
  8
Layer 1
370
     0
100
AcDb2dPolyline
 66
     1
 10
0.0
 20
0.0
 30
0.0
  0
VERTEX
  5
290
330
28F
100
AcDbEntity
  8
Layer 1
370
     0
100
AcDbVertex
100
AcDb2dVertex
 10
27.87236646570538
 20
143.9603793278668
 30
0.0
  0
VERTEX
  5
291
330
28F
100
AcDbEntity
  8
Layer 1
370
     0
100
AcDbVertex
100
AcDb2dVertex
 10
23.98187357964769
 20
129.4432683930951
 30
0.0
  0
VERTEX
  5
292
330
28F
100
AcDbEntity
  8
Layer 1
370
     0
100
AcDbVertex
100
AcDb2dVertex
 10
20.0913626725377
 20
143.9603793278668
 30
0.0
  0
VERTEX
  5
293
330
28F
100
AcDbEntity
  8
Layer 1
370
     0
100
AcDbVertex
100
AcDb2dVertex
 10
27.87236646570538
 20
143.9603793278668
 30
0.0
  0
SEQEND
  5
295
330
28F
100
AcDbEntity
  8
Layer 1
370
     0
  0
HATCH
  5
294
330
28B
100
AcDbEntity
  8
Layer 1
 62
     7
420
 16777215
100
AcDbHatch
 10
0.0
 20
0.0
 30
0.0
210
0.0
220
0.0
230
1.0
  2
SOLID
 70
     1
 71
     0
 91
        1
 92
        1
 93
        3
 72
     1
 10
27.87236646570538
 20
143.9603793278668
 11
23.98187357964769
 21
129.4432683930951
 72
     1
 10
23.98187357964769
 20
129.4432683930951
 11
20.0913626725377
 21
143.9603793278668
 72
     1
 10
20.0913626725377
 20
143.9603793278668
 11
27.87236646570538
 21
143.9603793278668
 97
        0
 75
     2
 76
     1
 98
        0
  0
ENDBLK
  5
28E
330
28B
100
AcDbEntity
  8
0
100
AcDbBlockEnd
  0
BLOCK
  5
2B3
330
2B1
100
AcDbEntity
  8
0
100
AcDbBlockBegin
  2
block 14
 70
     0
 10
0.0
 20
0.0
 30
0.0
  3
block 14
  1

  0
POLYLINE
  5
2B5
330
2B1
100
AcDbEntity
  8
Layer 1
 62
     7
420
 16777215
370
    20
100
AcDb2dPolyline
 66
     1
 10
0.0
 20
0.0
 30
0.0
  0
VERTEX
  5
2B6
330
2B5
100
AcDbEntity
  8
Layer 1
 62
     7
420
 16777215
370
    20
100
AcDbVertex
100
AcDb2dVertex
 10
167.94171592143
 20
50.36168755989215
 30
0.0
  0
VERTEX
  5
2B7
330
2B5
100
AcDbEntity
  8
Layer 1
 62
     7
420
 16777215
370
    20
100
AcDbVertex
100
AcDb2dVertex
 10
511.1185106362449
 20
50.36168755989215
 30
0.0
  0
SEQEND
  5
2B8
330
2B5
100
AcDbEntity
  8
Layer 1
 62
     7
420
 16777215
370
    20
  0
INSERT
  5
2BA
330
2B1
100
AcDbEntity
  8
Layer 1
100
AcDbBlockReference
  2
block 15
 10
0.0
 20
0.0
 30
0.0
  0
ENDBLK
  5
2B4
330
2B1
100
AcDbEntity
  8
0
100
AcDbBlockEnd
  0
BLOCK
  5
2BB
330
2B9
100
AcDbEntity
  8
0
100
AcDbBlockBegin
  2
block 15
 70
     0
 10
0.0
 20
0.0
 30
0.0
  3
block 15
  1

  0
POLYLINE
  5
2BD
330
2B9
100
AcDbEntity
  8
Layer 1
370
     0
100
AcDb2dPolyline
 66
     1
 10
0.0
 20
0.0
 30
0.0
  0
VERTEX
  5
2BE
330
2BD
100
AcDbEntity
  8
Layer 1
370
     0
100
AcDbVertex
100
AcDb2dVertex
 10
170.5950996126253
 20
46.47115863172986
 30
0.0
  0
VERTEX
  5
2BF
330
2BD
100
AcDbEntity
  8
Layer 1
370
     0
100
AcDbVertex
100
AcDb2dVertex
 10
156.077988677853
 20
50.36168755989215
 30
0.0
  0
VERTEX
  5
2C0
330
2BD
100
AcDbEntity
  8
Layer 1
370
     0
100
AcDbVertex
100
AcDb2dVertex
 10
170.5950996126253
 20
54.25214440384524
 30
0.0
  0
VERTEX
  5
2C1
330
2BD
100
AcDbEntity
  8
Layer 1
370
     0
100
AcDbVertex
100
AcDb2dVertex
 10
170.5950996126253
 20
46.47115863172986
 30
0.0
  0
SEQEND
  5
2C3
330
2BD
100
AcDbEntity
  8
Layer 1
370
     0
  0
HATCH
  5
2C2
330
2B9
100
AcDbEntity
  8
Layer 1
 62
     7
420
 16777215
100
AcDbHatch
 10
0.0
 20
0.0
 30
0.0
210
0.0
220
0.0
230
1.0
  2
SOLID
 70
     1
 71
     0
 91
        1
 92
        1
 93
        3
 72
     1
 10
170.5950996126253
 20
46.47115863172986
 11
156.077988677853
 21
50.36168755989215
 72
     1
 10
156.077988677853
 20
50.36168755989215
 11
170.5950996126253
 21
54.25214440384524
 72
     1
 10
170.5950996126253
 20
54.25214440384524
 11
170.5950996126253
 21
46.47115863172986
 97
        0
 75
     2
 76
     1
 98
        0
  0
ENDBLK
  5
2BC
330
2B9
100
AcDbEntity
  8
0
100
AcDbBlockEnd
  0
BLOCK
  5
2C6
330
2C4
100
AcDbEntity
  8
0
100
AcDbBlockBegin
  2
block 16
 70
     0
 10
0.0
 20
0.0
 30
0.0
  3
block 16
  1

  0
POLYLINE
  5
2C8
330
2C4
100
AcDbEntity
  8
Layer 1
 62
     7
420
 16777215
370
    20
100
AcDb2dPolyline
 66
     1
 10
0.0
 20
0.0
 30
0.0
  0
VERTEX
  5
2C9
330
2C8
100
AcDbEntity
  8
Layer 1
 62
     7
420
 16777215
370
    20
100
AcDbVertex
100
AcDb2dVertex
 10
199.1208394718811
 20
96.28004953514926
 30
0.0
  0
VERTEX
  5
2CA
330
2C8
100
AcDbEntity
  8
Layer 1
 62
     7
420
 16777215
370
    20
100
AcDbVertex
100
AcDb2dVertex
 10
304.9982687603083
 20
96.28004953514926
 30
0.0
  0
SEQEND
  5
2CB
330
2C8
100
AcDbEntity
  8
Layer 1
 62
     7
420
 16777215
370
    20
  0
INSERT
  5
2CD
330
2C4
100
AcDbEntity
  8
Layer 1
100
AcDbBlockReference
  2
block 17
 10
0.0
 20
0.0
 30
0.0
  0
ENDBLK
  5
2C7
330
2C4
100
AcDbEntity
  8
0
100
AcDbBlockEnd
  0
BLOCK
  5
2CE
330
2CC
100
AcDbEntity
  8
0
100
AcDbBlockBegin
  2
block 17
 70
     0
 10
0.0
 20
0.0
 30
0.0
  3
block 17
  1

  0
POLYLINE
  5
2D0
330
2CC
100
AcDbEntity
  8
Layer 1
370
     0
100
AcDb2dPolyline
 66
     1
 10
0.0
 20
0.0
 30
0.0
  0
VERTEX
  5
2D1
330
2D0
100
AcDbEntity
  8
Layer 1
370
     0
100
AcDbVertex
100
AcDb2dVertex
 10
201.7742231630758
 20
92.38952060698696
 30
0.0
  0
VERTEX
  5
2D2
330
2D0
100
AcDbEntity
  8
Layer 1
370
     0
100
AcDbVertex
100
AcDb2dVertex
 10
187.2571122283048
 20
96.28004953514926
 30
0.0
  0
VERTEX
  5
2D3
330
2D0
100
AcDbEntity
  8
Layer 1
370
     0
100
AcDbVertex
100
AcDb2dVertex
 10
201.7742231630758
 20
100.1705063791023
 30
0.0
  0
VERTEX
  5
2D4
330
2D0
100
AcDbEntity
  8
Layer 1
370
     0
100
AcDbVertex
100
AcDb2dVertex
 10
201.7742231630758
 20
92.38952060698696
 30
0.0
  0
SEQEND
  5
2D6
330
2D0
100
AcDbEntity
  8
Layer 1
370
     0
  0
HATCH
  5
2D5
330
2CC
100
AcDbEntity
  8
Layer 1
 62
     7
420
 16777215
100
AcDbHatch
 10
0.0
 20
0.0
 30
0.0
210
0.0
220
0.0
230
1.0
  2
SOLID
 70
     1
 71
     0
 91
        1
 92
        1
 93
        3
 72
     1
 10
201.7742231630758
 20
92.38952060698696
 11
187.2571122283048
 21
96.28004953514926
 72
     1
 10
187.2571122283048
 20
96.28004953514926
 11
201.7742231630758
 21
100.1705063791023
 72
     1
 10
201.7742231630758
 20
100.1705063791023
 11
201.7742231630758
 21
92.38952060698696
 97
        0
 75
     2
 76
     1
 98
        0
  0
ENDBLK
  5
2CF
330
2CC
100
AcDbEntity
  8
0
100
AcDbBlockEnd
  0
BLOCK
  5
2D9
330
2D7
100
AcDbEntity
  8
0
100
AcDbBlockBegin
  2
block 18
 70
     0
 10
0.0
 20
0.0
 30
0.0
  3
block 18
  1

  0
POLYLINE
  5
2DB
330
2D7
100
AcDbEntity
  8
Layer 1
 62
     7
420
 16777215
370
    20
100
AcDb2dPolyline
 66
     1
 10
0.0
 20
0.0
 30
0.0
  0
VERTEX
  5
2DC
330
2DB
100
AcDbEntity
  8
Layer 1
 62
     7
420
 16777215
370
    20
100
AcDbVertex
100
AcDb2dVertex
 10
473.0128845694954
 20
96.28004953514926
 30
0.0
  0
VERTEX
  5
2DD
330
2DB
100
AcDbEntity
  8
Layer 1
 62
     7
420
 16777215
370
    20
100
AcDbVertex
100
AcDb2dVertex
 10
370.6116547412715
 20
96.28004953514926
 30
0.0
  0
SEQEND
  5
2DE
330
2DB
100
AcDbEntity
  8
Layer 1
 62
     7
420
 16777215
370
    20
  0
INSERT
  5
2E0
330
2D7
100
AcDbEntity
  8
Layer 1
100
AcDbBlockReference
  2
block 19
 10
0.0
 20
0.0
 30
0.0
  0
ENDBLK
  5
2DA
330
2D7
100
AcDbEntity
  8
0
100
AcDbBlockEnd
  0
BLOCK
  5
2E1
330
2DF
100
AcDbEntity
  8
0
100
AcDbBlockBegin
  2
block 19
 70
     0
 10
0.0
 20
0.0
 30
0.0
  3
block 19
  1

  0
POLYLINE
  5
2E3
330
2DF
100
AcDbEntity
  8
Layer 1
370
     0
100
AcDb2dPolyline
 66
     1
 10
0.0
 20
0.0
 30
0.0
  0
VERTEX
  5
2E4
330
2E3
100
AcDbEntity
  8
Layer 1
370
     0
100
AcDbVertex
100
AcDb2dVertex
 10
470.3595381945142
 20
100.1705063791023
 30
0.0
  0
VERTEX
  5
2E5
330
2E3
100
AcDbEntity
  8
Layer 1
370
     0
100
AcDbVertex
100
AcDb2dVertex
 10
484.8766491292859
 20
96.28004953514926
 30
0.0
  0
VERTEX
  5
2E6
330
2E3
100
AcDbEntity
  8
Layer 1
370
     0
100
AcDbVertex
100
AcDb2dVertex
 10
470.3595381945142
 20
92.38952060698696
 30
0.0
  0
VERTEX
  5
2E7
330
2E3
100
AcDbEntity
  8
Layer 1
370
     0
100
AcDbVertex
100
AcDb2dVertex
 10
470.3595381945142
 20
100.1705063791023
 30
0.0
  0
SEQEND
  5
2E9
330
2E3
100
AcDbEntity
  8
Layer 1
370
     0
  0
HATCH
  5
2E8
330
2DF
100
AcDbEntity
  8
Layer 1
 62
     7
420
 16777215
100
AcDbHatch
 10
0.0
 20
0.0
 30
0.0
210
0.0
220
0.0
230
1.0
  2
SOLID
 70
     1
 71
     0
 91
        1
 92
        1
 93
        3
 72
     1
 10
470.3595381945142
 20
100.1705063791023
 11
484.8766491292859
 21
96.28004953514926
 72
     1
 10
484.8766491292859
 20
96.28004953514926
 11
470.3595381945142
 21
92.38952060698696
 72
     1
 10
470.3595381945142
 20
92.38952060698696
 11
470.3595381945142
 21
100.1705063791023
 97
        0
 75
     2
 76
     1
 98
        0
  0
ENDBLK
  5
2E2
330
2DF
100
AcDbEntity
  8
0
100
AcDbBlockEnd
  0
BLOCK
  5
2EC
330
2EA
100
AcDbEntity
  8
0
100
AcDbBlockBegin
  2
block 20
 70
     0
 10
0.0
 20
0.0
 30
0.0
  3
block 20
  1

  0
POLYLINE
  5
2EE
330
2EA
100
AcDbEntity
  8
Layer 1
 62
     7
420
 16777215
370
    20
100
AcDb2dPolyline
 66
     1
 10
0.0
 20
0.0
 30
0.0
  0
VERTEX
  5
2EF
330
2EE
100
AcDbEntity
  8
Layer 1
 62
     7
420
 16777215
370
    20
100
AcDbVertex
100
AcDb2dVertex
 10
894.3558882481948
 20
50.36168755989215
 30
0.0
  0
VERTEX
  5
2F0
330
2EE
100
AcDbEntity
  8
Layer 1
 62
     7
420
 16777215
370
    20
100
AcDbVertex
100
AcDb2dVertex
 10
586.7105174559151
 20
50.36168755989215
 30
0.0
  0
SEQEND
  5
2F1
330
2EE
100
AcDbEntity
  8
Layer 1
 62
     7
420
 16777215
370
    20
  0
INSERT
  5
2F3
330
2EA
100
AcDbEntity
  8
Layer 1
100
AcDbBlockReference
  2
block 21
 10
0.0
 20
0.0
 30
0.0
  0
ENDBLK
  5
2ED
330
2EA
100
AcDbEntity
  8
0
100
AcDbBlockEnd
  0
BLOCK
  5
2F4
330
2F2
100
AcDbEntity
  8
0
100
AcDbBlockBegin
  2
block 21
 70
     0
 10
0.0
 20
0.0
 30
0.0
  3
block 21
  1

  0
POLYLINE
  5
2F6
330
2F2
100
AcDbEntity
  8
Layer 1
370
     0
100
AcDb2dPolyline
 66
     1
 10
0.0
 20
0.0
 30
0.0
  0
VERTEX
  5
2F7
330
2F6
100
AcDbEntity
  8
Layer 1
370
     0
100
AcDbVertex
100
AcDb2dVertex
 10
891.7025405991079
 20
54.25214440384524
 30
0.0
  0
VERTEX
  5
2F8
330
2F6
100
AcDbEntity
  8
Layer 1
370
     0
100
AcDbVertex
100
AcDb2dVertex
 10
906.2196515338795
 20
50.36168755989215
 30
0.0
  0
VERTEX
  5
2F9
330
2F6
100
AcDbEntity
  8
Layer 1
370
     0
100
AcDbVertex
100
AcDb2dVertex
 10
891.7025405991079
 20
46.47115863172986
 30
0.0
  0
VERTEX
  5
2FA
330
2F6
100
AcDbEntity
  8
Layer 1
370
     0
100
AcDbVertex
100
AcDb2dVertex
 10
891.7025405991079
 20
54.25214440384524
 30
0.0
  0
SEQEND
  5
2FC
330
2F6
100
AcDbEntity
  8
Layer 1
370
     0
  0
HATCH
  5
2FB
330
2F2
100
AcDbEntity
  8
Layer 1
 62
     7
420
 16777215
100
AcDbHatch
 10
0.0
 20
0.0
 30
0.0
210
0.0
220
0.0
230
1.0
  2
SOLID
 70
     1
 71
     0
 91
        1
 92
        1
 93
        3
 72
     1
 10
891.7025405991079
 20
54.25214440384524
 11
906.2196515338795
 21
50.36168755989215
 72
     1
 10
906.2196515338795
 20
50.36168755989215
 11
891.7025405991079
 21
46.47115863172986
 72
     1
 10
891.7025405991079
 20
46.47115863172986
 11
891.7025405991079
 21
54.25214440384524
 97
        0
 75
     2
 76
     1
 98
        0
  0
ENDBLK
  5
2F5
330
2F2
100
AcDbEntity
  8
0
100
AcDbBlockEnd
  0
BLOCK
  5
2FF
330
2FD
100
AcDbEntity
  8
0
100
AcDbBlockBegin
  2
block 22
 70
     0
 10
0.0
 20
0.0
 30
0.0
  3
block 22
  1

  0
POLYLINE
  5
301
330
2FD
100
AcDbEntity
  8
Layer 1
 62
     7
420
 16777215
370
    20
100
AcDb2dPolyline
 66
     1
 10
0.0
 20
0.0
 30
0.0
  0
VERTEX
  5
302
330
301
100
AcDbEntity
  8
Layer 1
 62
     7
420
 16777215
370
    20
100
AcDbVertex
100
AcDb2dVertex
 10
533.4917128880306
 20
96.28004953514926
 30
0.0
  0
VERTEX
  5
303
330
301
100
AcDbEntity
  8
Layer 1
 62
     7
420
 16777215
370
    20
100
AcDbVertex
100
AcDb2dVertex
 10
663.2261906079888
 20
96.28004953514926
 30
0.0
  0
SEQEND
  5
304
330
301
100
AcDbEntity
  8
Layer 1
 62
     7
420
 16777215
370
    20
  0
INSERT
  5
306
330
2FD
100
AcDbEntity
  8
Layer 1
100
AcDbBlockReference
  2
block 23
 10
0.0
 20
0.0
 30
0.0
  0
ENDBLK
  5
300
330
2FD
100
AcDbEntity
  8
0
100
AcDbBlockEnd
  0
BLOCK
  5
307
330
305
100
AcDbEntity
  8
0
100
AcDbBlockBegin
  2
block 23
 70
     0
 10
0.0
 20
0.0
 30
0.0
  3
block 23
  1

  0
POLYLINE
  5
309
330
305
100
AcDbEntity
  8
Layer 1
370
     0
100
AcDb2dPolyline
 66
     1
 10
0.0
 20
0.0
 30
0.0
  0
VERTEX
  5
30A
330
309
100
AcDbEntity
  8
Layer 1
370
     0
100
AcDbVertex
100
AcDb2dVertex
 10
536.1451338954369
 20
92.38952060698696
 30
0.0
  0
VERTEX
  5
30B
330
309
100
AcDbEntity
  8
Layer 1
370
     0
100
AcDbVertex
100
AcDb2dVertex
 10
521.6279508764566
 20
96.28004953514926
 30
0.0
  0
VERTEX
  5
30C
330
309
100
AcDbEntity
  8
Layer 1
370
     0
100
AcDbVertex
100
AcDb2dVertex
 10
536.1451338954369
 20
100.1705063791023
 30
0.0
  0
VERTEX
  5
30D
330
309
100
AcDbEntity
  8
Layer 1
370
     0
100
AcDbVertex
100
AcDb2dVertex
 10
536.1451338954369
 20
92.38952060698696
 30
0.0
  0
SEQEND
  5
30F
330
309
100
AcDbEntity
  8
Layer 1
370
     0
  0
HATCH
  5
30E
330
305
100
AcDbEntity
  8
Layer 1
 62
     7
420
 16777215
100
AcDbHatch
 10
0.0
 20
0.0
 30
0.0
210
0.0
220
0.0
230
1.0
  2
SOLID
 70
     1
 71
     0
 91
        1
 92
        1
 93
        3
 72
     1
 10
536.1451338954369
 20
92.38952060698696
 11
521.6279508764566
 21
96.28004953514926
 72
     1
 10
521.6279508764566
 20
96.28004953514926
 11
536.1451338954369
 21
100.1705063791023
 72
     1
 10
536.1451338954369
 20
100.1705063791023
 11
536.1451338954369
 21
92.38952060698696
 97
        0
 75
     2
 76
     1
 98
        0
  0
ENDBLK
  5
308
330
305
100
AcDbEntity
  8
0
100
AcDbBlockEnd
  0
BLOCK
  5
312
330
310
100
AcDbEntity
  8
0
100
AcDbBlockBegin
  2
block 24
 70
     0
 10
0.0
 20
0.0
 30
0.0
  3
block 24
  1

  0
POLYLINE
  5
314
330
310
100
AcDbEntity
  8
Layer 1
 62
     7
420
 16777215
370
    20
100
AcDb2dPolyline
 66
     1
 10
0.0
 20
0.0
 30
0.0
  0
VERTEX
  5
315
330
314
100
AcDbEntity
  8
Layer 1
 62
     7
420
 16777215
370
    20
100
AcDbVertex
100
AcDb2dVertex
 10
863.7437160120619
 20
96.28004953514926
 30
0.0
  0
VERTEX
  5
316
330
314
100
AcDbEntity
  8
Layer 1
 62
     7
420
 16777215
370
    20
100
AcDbVertex
100
AcDb2dVertex
 10
729.3687167984742
 20
96.28004953514926
 30
0.0
  0
SEQEND
  5
317
330
314
100
AcDbEntity
  8
Layer 1
 62
     7
420
 16777215
370
    20
  0
INSERT
  5
319
330
310
100
AcDbEntity
  8
Layer 1
100
AcDbBlockReference
  2
block 25
 10
0.0
 20
0.0
 30
0.0
  0
ENDBLK
  5
313
330
310
100
AcDbEntity
  8
0
100
AcDbBlockEnd
  0
BLOCK
  5
31A
330
318
100
AcDbEntity
  8
0
100
AcDbBlockBegin
  2
block 25
 70
     0
 10
0.0
 20
0.0
 30
0.0
  3
block 25
  1

  0
POLYLINE
  5
31C
330
318
100
AcDbEntity
  8
Layer 1
370
     0
100
AcDb2dPolyline
 66
     1
 10
0.0
 20
0.0
 30
0.0
  0
VERTEX
  5
31D
330
31C
100
AcDbEntity
  8
Layer 1
370
     0
100
AcDbVertex
100
AcDb2dVertex
 10
861.0902962787587
 20
100.1705063791023
 30
0.0
  0
VERTEX
  5
31E
330
31C
100
AcDbEntity
  8
Layer 1
370
     0
100
AcDbVertex
100
AcDb2dVertex
 10
875.6074072135305
 20
96.28004953514926
 30
0.0
  0
VERTEX
  5
31F
330
31C
100
AcDbEntity
  8
Layer 1
370
     0
100
AcDbVertex
100
AcDb2dVertex
 10
861.0902962787587
 20
92.38952060698696
 30
0.0
  0
VERTEX
  5
320
330
31C
100
AcDbEntity
  8
Layer 1
370
     0
100
AcDbVertex
100
AcDb2dVertex
 10
861.0902962787587
 20
100.1705063791023
 30
0.0
  0
SEQEND
  5
322
330
31C
100
AcDbEntity
  8
Layer 1
370
     0
  0
HATCH
  5
321
330
318
100
AcDbEntity
  8
Layer 1
 62
     7
420
 16777215
100
AcDbHatch
 10
0.0
 20
0.0
 30
0.0
210
0.0
220
0.0
230
1.0
  2
SOLID
 70
     1
 71
     0
 91
        1
 92
        1
 93
        3
 72
     1
 10
861.0902962787587
 20
100.1705063791023
 11
875.6074072135305
 21
96.28004953514926
 72
     1
 10
875.6074072135305
 20
96.28004953514926
 11
861.0902962787587
 21
92.38952060698696
 72
     1
 10
861.0902962787587
 20
92.38952060698696
 11
861.0902962787587
 21
100.1705063791023
 97
        0
 75
     2
 76
     1
 98
        0
  0
ENDBLK
  5
31B
330
318
100
AcDbEntity
  8
0
100
AcDbBlockEnd
  0
BLOCK
  5
326
330
324
100
AcDbEntity
  8
0
100
AcDbBlockBegin
  2
block 26
 70
     0
 10
0.0
 20
0.0
 30
0.0
  3
block 26
  1

  0
POLYLINE
  5
328
330
324
100
AcDbEntity
  8
Layer 1
 62
     7
420
 16777215
370
    20
100
AcDb2dPolyline
 66
     1
 10
0.0
 20
0.0
 30
0.0
  0
VERTEX
  5
329
330
328
100
AcDbEntity
  8
Layer 1
 62
     7
420
 16777215
370
    20
100
AcDbVertex
100
AcDb2dVertex
 10
208.1163090077588
 20
171.5078238583345
 30
0.0
  0
VERTEX
  5
32A
330
328
100
AcDbEntity
  8
Layer 1
 62
     7
420
 16777215
370
    20
100
AcDbVertex
100
AcDb2dVertex
 10
247.553976214952
 20
224.164473522518
 30
0.0
  0
VERTEX
  5
32B
330
328
100
AcDbEntity
  8
Layer 1
 62
     7
420
 16777215
370
    20
100
AcDbVertex
100
AcDb2dVertex
 10
286.3805495403453
 20
224.164473522518
 30
0.0
  0
SEQEND
  5
32C
330
328
100
AcDbEntity
  8
Layer 1
 62
     7
420
 16777215
370
    20
  0
INSERT
  5
32E
330
324
100
AcDbEntity
  8
Layer 1
100
AcDbBlockReference
  2
block 27
 10
0.0
 20
0.0
 30
0.0
  0
ENDBLK
  5
327
330
324
100
AcDbEntity
  8
0
100
AcDbBlockEnd
  0
BLOCK
  5
32F
330
32D
100
AcDbEntity
  8
0
100
AcDbBlockBegin
  2
block 27
 70
     0
 10
0.0
 20
0.0
 30
0.0
  3
block 27
  1

  0
POLYLINE
  5
331
330
32D
100
AcDbEntity
  8
Layer 1
370
     0
100
AcDb2dPolyline
 66
     1
 10
0.0
 20
0.0
 30
0.0
  0
VERTEX
  5
332
330
331
100
AcDbEntity
  8
Layer 1
370
     0
100
AcDbVertex
100
AcDb2dVertex
 10
212.8208849081614
 20
171.2993563259058
 30
0.0
  0
VERTEX
  5
333
330
331
100
AcDbEntity
  8
Layer 1
370
     0
100
AcDbVertex
100
AcDb2dVertex
 10
201.0044088635845
 20
162.0120268383116
 30
0.0
  0
VERTEX
  5
334
330
331
100
AcDbEntity
  8
Layer 1
370
     0
100
AcDbVertex
100
AcDb2dVertex
 10
206.5929894610611
 20
175.963781321895
 30
0.0
  0
VERTEX
  5
335
330
331
100
AcDbEntity
  8
Layer 1
370
     0
100
AcDbVertex
100
AcDb2dVertex
 10
212.8208849081614
 20
171.2993563259058
 30
0.0
  0
SEQEND
  5
337
330
331
100
AcDbEntity
  8
Layer 1
370
     0
  0
HATCH
  5
336
330
32D
100
AcDbEntity
  8
Layer 1
 62
     7
420
 16777215
100
AcDbHatch
 10
0.0
 20
0.0
 30
0.0
210
0.0
220
0.0
230
1.0
  2
SOLID
 70
     1
 71
     0
 91
        1
 92
        1
 93
        3
 72
     1
 10
212.8208849081614
 20
171.2993563259058
 11
201.0044088635845
 21
162.0120268383116
 72
     1
 10
201.0044088635845
 20
162.0120268383116
 11
206.5929894610611
 21
175.963781321895
 72
     1
 10
206.5929894610611
 20
175.963781321895
 11
212.8208849081614
 21
171.2993563259058
 97
        0
 75
     2
 76
     1
 98
        0
  0
ENDBLK
  5
330
330
32D
100
AcDbEntity
  8
0
100
AcDbBlockEnd
  0
BLOCK
  5
344
330
342
100
AcDbEntity
  8
0
100
AcDbBlockBegin
  2
block 28
 70
     0
 10
0.0
 20
0.0
 30
0.0
  3
block 28
  1

  0
POLYLINE
  5
346
330
342
100
AcDbEntity
  8
Layer 1
 62
     7
420
 16777215
370
    20
100
AcDb2dPolyline
 66
     1
 10
0.0
 20
0.0
 30
0.0
  0
VERTEX
  5
347
330
346
100
AcDbEntity
  8
Layer 1
 62
     7
420
 16777215
370
    20
100
AcDbVertex
100
AcDb2dVertex
 10
23.98188259017384
 20
-80.45529324960427
 30
0.0
  0
VERTEX
  5
348
330
346
100
AcDbEntity
  8
Layer 1
 62
     7
420
 16777215
370
    20
100
AcDbVertex
100
AcDb2dVertex
 10
23.98188259017384
 20
-142.6655514694283
 30
0.0
  0
SEQEND
  5
349
330
346
100
AcDbEntity
  8
Layer 1
 62
     7
420
 16777215
370
    20
  0
INSERT
  5
34B
330
342
100
AcDbEntity
  8
Layer 1
100
AcDbBlockReference
  2
block 29
 10
0.0
 20
0.0
 30
0.0
  0
ENDBLK
  5
345
330
342
100
AcDbEntity
  8
0
100
AcDbBlockEnd
  0
BLOCK
  5
34C
330
34A
100
AcDbEntity
  8
0
100
AcDbBlockBegin
  2
block 29
 70
     0
 10
0.0
 20
0.0
 30
0.0
  3
block 29
  1

  0
POLYLINE
  5
34E
330
34A
100
AcDbEntity
  8
Layer 1
370
     0
100
AcDb2dPolyline
 66
     1
 10
0.0
 20
0.0
 30
0.0
  0
VERTEX
  5
34F
330
34E
100
AcDbEntity
  8
Layer 1
370
     0
100
AcDbVertex
100
AcDb2dVertex
 10
20.09137168306353
 20
-83.10871298290421
 30
0.0
  0
VERTEX
  5
350
330
34E
100
AcDbEntity
  8
Layer 1
370
     0
100
AcDbVertex
100
AcDb2dVertex
 10
23.98188259017384
 20
-68.59160204813193
 30
0.0
  0
VERTEX
  5
351
330
34E
100
AcDbEntity
  8
Layer 1
370
     0
100
AcDbVertex
100
AcDb2dVertex
 10
27.87237547623153
 20
-83.10871298290421
 30
0.0
  0
VERTEX
  5
352
330
34E
100
AcDbEntity
  8
Layer 1
370
     0
100
AcDbVertex
100
AcDb2dVertex
 10
20.09137168306353
 20
-83.10871298290421
 30
0.0
  0
SEQEND
  5
354
330
34E
100
AcDbEntity
  8
Layer 1
370
     0
  0
HATCH
  5
353
330
34A
100
AcDbEntity
  8
Layer 1
 62
     7
420
 16777215
100
AcDbHatch
 10
0.0
 20
0.0
 30
0.0
210
0.0
220
0.0
230
1.0
  2
SOLID
 70
     1
 71
     0
 91
        1
 92
        1
 93
        3
 72
     1
 10
20.09137168306353
 20
-83.10871298290421
 11
23.98188259017384
 21
-68.59160204813193
 72
     1
 10
23.98188259017384
 20
-68.59160204813193
 11
27.87237547623153
 21
-83.10871298290421
 72
     1
 10
27.87237547623153
 20
-83.10871298290421
 11
20.09137168306353
 21
-83.10871298290421
 97
        0
 75
     2
 76
     1
 98
        0
  0
ENDBLK
  5
34D
330
34A
100
AcDbEntity
  8
0
100
AcDbBlockEnd
  0
BLOCK
  5
357
330
355
100
AcDbEntity
  8
0
100
AcDbBlockBegin
  2
block 30
 70
     0
 10
0.0
 20
0.0
 30
0.0
  3
block 30
  1

  0
POLYLINE
  5
359
330
355
100
AcDbEntity
  8
Layer 1
 62
     7
420
 16777215
370
    20
100
AcDb2dPolyline
 66
     1
 10
0.0
 20
0.0
 30
0.0
  0
VERTEX
  5
35A
330
359
100
AcDbEntity
  8
Layer 1
 62
     7
420
 16777215
370
    20
100
AcDbVertex
100
AcDb2dVertex
 10
23.98188259017384
 20
-253.5467061116052
 30
0.0
  0
VERTEX
  5
35B
330
359
100
AcDbEntity
  8
Layer 1
 62
     7
420
 16777215
370
    20
100
AcDbVertex
100
AcDb2dVertex
 10
23.98188259017384
 20
-197.8430580065604
 30
0.0
  0
SEQEND
  5
35C
330
359
100
AcDbEntity
  8
Layer 1
 62
     7
420
 16777215
370
    20
  0
INSERT
  5
35E
330
355
100
AcDbEntity
  8
Layer 1
100
AcDbBlockReference
  2
block 31
 10
0.0
 20
0.0
 30
0.0
  0
ENDBLK
  5
358
330
355
100
AcDbEntity
  8
0
100
AcDbBlockEnd
  0
BLOCK
  5
35F
330
35D
100
AcDbEntity
  8
0
100
AcDbBlockBegin
  2
block 31
 70
     0
 10
0.0
 20
0.0
 30
0.0
  3
block 31
  1

  0
POLYLINE
  5
361
330
35D
100
AcDbEntity
  8
Layer 1
370
     0
100
AcDb2dPolyline
 66
     1
 10
0.0
 20
0.0
 30
0.0
  0
VERTEX
  5
362
330
361
100
AcDbEntity
  8
Layer 1
370
     0
100
AcDbVertex
100
AcDb2dVertex
 10
27.87237547623153
 20
-251.17087376539
 30
0.0
  0
VERTEX
  5
363
330
361
100
AcDbEntity
  8
Layer 1
370
     0
100
AcDbVertex
100
AcDb2dVertex
 10
23.98188259017384
 20
-264.169630918188
 30
0.0
  0
VERTEX
  5
364
330
361
100
AcDbEntity
  8
Layer 1
370
     0
100
AcDbVertex
100
AcDb2dVertex
 10
20.09137168306353
 20
-251.17087376539
 30
0.0
  0
VERTEX
  5
365
330
361
100
AcDbEntity
  8
Layer 1
370
     0
100
AcDbVertex
100
AcDb2dVertex
 10
27.87237547623153
 20
-251.17087376539
 30
0.0
  0
SEQEND
  5
367
330
361
100
AcDbEntity
  8
Layer 1
370
     0
  0
HATCH
  5
366
330
35D
100
AcDbEntity
  8
Layer 1
 62
     7
420
 16777215
100
AcDbHatch
 10
0.0
 20
0.0
 30
0.0
210
0.0
220
0.0
230
1.0
  2
SOLID
 70
     1
 71
     0
 91
        1
 92
        1
 93
        3
 72
     1
 10
27.87237547623153
 20
-251.17087376539
 11
23.98188259017384
 21
-264.169630918188
 72
     1
 10
23.98188259017384
 20
-264.169630918188
 11
20.09137168306353
 21
-251.17087376539
 72
     1
 10
20.09137168306353
 20
-251.17087376539
 11
27.87237547623153
 21
-251.17087376539
 97
        0
 75
     2
 76
     1
 98
        0
  0
ENDBLK
  5
360
330
35D
100
AcDbEntity
  8
0
100
AcDbBlockEnd
  0
BLOCK
  5
36A
330
368
100
AcDbEntity
  8
0
100
AcDbBlockBegin
  2
block 32
 70
     0
 10
0.0
 20
0.0
 30
0.0
  3
block 32
  1

  0
MTEXT
  5
36C
330
368
100
AcDbEntity
  8
Layer 1
 62
     7
420
 16777215
100
AcDbMText
 10
1210.555221594063
 20
-447.6138494432181
 30
0.0
 40
9.59555562313517
 41
0.0
 46
0.0
 71
     7
 72
     1
  1
\fFrutiger LT Std 55 Roman|b0|i0|c0|p34;\W1;CAD Drawing: AP1426
 73
     1
 44
1.0
  0
ENDBLK
  5
36B
330
368
100
AcDbEntity
  8
0
100
AcDbBlockEnd
  0
BLOCK
  5
36F
330
36D
100
AcDbEntity
  8
0
100
AcDbBlockBegin
  2
block 33
 70
     0
 10
0.0
 20
0.0
 30
0.0
  3
block 33
  1

  0
SPLINE
  5
371
330
36D
100
AcDbEntity
  8
Layer 1
370
     0
100
AcDbSpline
210
0.0
220
0.0
230
1.0
 70
    11
 71
     3
 72
    38
 73
    34
 74
     0
 42
0.0000000001
 43
0.0000000001
 12
1.0
 22
0.0
 32
0.0
 13
1.0
 23
0.0
 33
0.0
 40
0.0
 40
0.0
 40
0.0
 40
0.0
 40
1.0
 40
1.0
 40
1.0
 40
2.0
 40
2.0
 40
2.0
 40
3.0
 40
3.0
 40
3.0
 40
4.0
 40
4.0
 40
4.0
 40
5.0
 40
5.0
 40
5.0
 40
6.0
 40
6.0
 40
6.0
 40
7.0
 40
7.0
 40
7.0
 40
8.0
 40
8.0
 40
8.0
 40
9.0
 40
9.0
 40
9.0
 40
10.0
 40
10.0
 40
10.0
 40
11.0
 40
11.0
 40
11.0
 40
11.0
 10
1303.75908374446
 20
-418.2618861584242
 30
0.0
 10
1303.75908374446
 20
-418.2618861584242
 30
0.0
 10
1303.728077885092
 20
-418.1271829249509
 30
0.0
 10
1303.728077885092
 20
-418.1271829249509
 30
0.0
 10
1304.121507789508
 20
-417.3882099433648
 30
0.0
 10
1304.757472416085
 20
-417.0481790189706
 30
0.0
 10
1305.563624759633
 20
-417.5105108330912
 30
0.0
 10
1306.270558353207
 20
-417.8698342922028
 30
0.0
 10
1307.446024932774
 20
-417.0819409547261
 30
0.0
 10
1308.186031443006
 20
-416.9048630467843
 30
0.0
 10
1310.872516902403
 20
-415.894072031412
 30
0.0
 10
1313.699562257599
 20
-415.1971292147459
 30
0.0
 10
1316.418431614559
 20
-414.2314689502304
 30
0.0
 10
1316.418431614559
 20
-414.2314689502304
 30
0.0
 10
1316.583107178754
 20
-414.1849601611795
 30
0.0
 10
1316.778099583219
 20
-414.1842711420825
 30
0.0
 10
1317.522240208033
 20
-414.1787589893061
 30
0.0
 10
1318.053473931858
 20
-414.8557202521577
 30
0.0
 10
1317.404417942437
 20
-415.4834166495702
 30
0.0
 10
1316.713331788096
 20
-416.1510761546116
 30
0.0
 10
1314.781322239968
 20
-416.8194246787501
 30
0.0
 10
1313.889042509288
 20
-417.2493725953092
 30
0.0
 10
1313.889042509288
 20
-417.2493725953092
 30
0.0
 10
1307.526640167129
 20
-419.692978822997
 30
0.0
 10
1306.97749194678
 20
-419.9399921692894
 30
0.0
 10
1306.870693986737
 20
-419.9871899774373
 30
0.0
 10
1306.781121504121
 20
-420.0436895433954
 30
0.0
 10
1306.694994116989
 20
-420.107079300324
 30
0.0
 10
1306.694994116989
 20
-420.107079300324
 30
0.0
 10
1306.42627666914
 20
-420.3106844435023
 30
0.0
 10
1306.42627666914
 20
-420.3106844435023
 30
0.0
 10
1305.16743877883
 20
-421.2164000465744
 30
0.0
 10
1303.97612476003
 20
-419.2406377857837
 30
0.0
 10
1303.75908374446
 20
-418.2618861584242
 30
0.0
  0
ENDBLK
  5
370
330
36D
100
AcDbEntity
  8
0
100
AcDbBlockEnd
  0
BLOCK
  5
374
330
372
100
AcDbEntity
  8
0
100
AcDbBlockBegin
  2
block 34
 70
     0
 10
0.0
 20
0.0
 30
0.0
  3
block 34
  1

  0
SPLINE
  5
376
330
372
100
AcDbEntity
  8
Layer 1
370
     0
100
AcDbSpline
210
0.0
220
0.0
230
1.0
 70
    11
 71
     3
 72
    41
 73
    37
 74
     0
 42
0.0000000001
 43
0.0000000001
 12
1.0
 22
0.0
 32
0.0
 13
1.0
 23
0.0
 33
0.0
 40
0.0
 40
0.0
 40
0.0
 40
0.0
 40
1.0
 40
1.0
 40
1.0
 40
2.0
 40
2.0
 40
2.0
 40
3.0
 40
3.0
 40
3.0
 40
4.0
 40
4.0
 40
4.0
 40
5.0
 40
5.0
 40
5.0
 40
6.0
 40
6.0
 40
6.0
 40
7.0
 40
7.0
 40
7.0
 40
8.0
 40
8.0
 40
8.0
 40
9.0
 40
9.0
 40
9.0
 40
10.0
 40
10.0
 40
10.0
 40
11.0
 40
11.0
 40
11.0
 40
12.0
 40
12.0
 40
12.0
 40
12.0
 10
1303.75908374446
 20
-418.2618861584242
 30
0.0
 10
1303.75908374446
 20
-418.2618861584242
 30
0.0
 10
1303.728077885092
 20
-418.1271829249509
 30
0.0
 10
1303.728077885092
 20
-418.1271829249509
 30
0.0
 10
1304.121507789508
 20
-417.3882099433687
 30
0.0
 10
1304.757472416085
 20
-417.0481790189706
 30
0.0
 10
1305.563624759633
 20
-417.5105108330951
 30
0.0
 10
1306.270558353207
 20
-417.8698342922066
 30
0.0
 10
1307.446024932774
 20
-417.0819409547261
 30
0.0
 10
1308.186031443006
 20
-416.9048630467843
 30
0.0
 10
1310.872516902403
 20
-415.894072031412
 30
0.0
 10
1313.699562257599
 20
-415.1971292147498
 30
0.0
 10
1316.418431614559
 20
-414.2314689502343
 30
0.0
 10
1316.418431614559
 20
-414.2314689502343
 30
0.0
 10
1316.583107178754
 20
-414.1849601611795
 30
0.0
 10
1316.778099583219
 20
-414.1842711420863
 30
0.0
 10
1317.522240208033
 20
-414.1787589893099
 30
0.0
 10
1318.053473931858
 20
-414.8557202521577
 30
0.0
 10
1317.404417942437
 20
-415.4834166495702
 30
0.0
 10
1316.7133317881
 20
-416.1510761546155
 30
0.0
 10
1314.781322239968
 20
-416.8194246787501
 30
0.0
 10
1313.889042509288
 20
-417.2493725953131
 30
0.0
 10
1313.889042509288
 20
-417.2493725953131
 30
0.0
 10
1307.526640167129
 20
-419.6929788230008
 30
0.0
 10
1306.977491946784
 20
-419.9399921692894
 30
0.0
 10
1306.870693986737
 20
-419.9871899774373
 30
0.0
 10
1306.781121504121
 20
-420.0436895433992
 30
0.0
 10
1306.694994116993
 20
-420.107079300324
 30
0.0
 10
1306.694994116993
 20
-420.107079300324
 30
0.0
 10
1306.42627666914
 20
-420.3106844435061
 30
0.0
 10
1306.42627666914
 20
-420.3106844435061
 30
0.0
 10
1305.16743877883
 20
-421.2164000465783
 30
0.0
 10
1303.75908374446
 20
-418.2618861584242
 30
0.0
 10
1303.75908374446
 20
-418.2618861584242
 30
0.0
 10
1303.75908374446
 20
-418.2618861584242
 30
0.0
 10
1303.97612476003
 20
-419.2406377857875
 30
0.0
 10
1303.75908374446
 20
-418.2618861584242
 30
0.0
  0
HATCH
  5
377
330
372
100
AcDbEntity
  8
Layer 1
 62
   254
420
 14079702
100
AcDbHatch
 10
0.0
 20
0.0
 30
0.0
210
0.0
220
0.0
230
1.0
  2
SOLID
 70
     1
 71
     0
 91
        1
 92
        1
 93
        1
 72
     4
 94
        3
 73
     0
 74
     1
 95
       41
 96
       37
 40
0.0
 40
0.0
 40
0.0
 40
0.0
 40
1.0
 40
1.0
 40
1.0
 40
2.0
 40
2.0
 40
2.0
 40
3.0
 40
3.0
 40
3.0
 40
4.0
 40
4.0
 40
4.0
 40
5.0
 40
5.0
 40
5.0
 40
6.0
 40
6.0
 40
6.0
 40
7.0
 40
7.0
 40
7.0
 40
8.0
 40
8.0
 40
8.0
 40
9.0
 40
9.0
 40
9.0
 40
10.0
 40
10.0
 40
10.0
 40
11.0
 40
11.0
 40
11.0
 40
12.0
 40
12.0
 40
12.0
 40
12.0
 10
1303.75908374446
 20
-418.2618861584242
 10
1303.75908374446
 20
-418.2618861584242
 10
1303.728077885092
 20
-418.1271829249509
 10
1303.728077885092
 20
-418.1271829249509
 10
1304.121507789508
 20
-417.3882099433687
 10
1304.757472416085
 20
-417.0481790189706
 10
1305.563624759633
 20
-417.5105108330951
 10
1306.270558353207
 20
-417.8698342922066
 10
1307.446024932774
 20
-417.0819409547261
 10
1308.186031443006
 20
-416.9048630467843
 10
1310.872516902403
 20
-415.894072031412
 10
1313.699562257599
 20
-415.1971292147498
 10
1316.418431614559
 20
-414.2314689502343
 10
1316.418431614559
 20
-414.2314689502343
 10
1316.583107178754
 20
-414.1849601611795
 10
1316.778099583219
 20
-414.1842711420863
 10
1317.522240208033
 20
-414.1787589893099
 10
1318.053473931858
 20
-414.8557202521577
 10
1317.404417942437
 20
-415.4834166495702
 10
1316.7133317881
 20
-416.1510761546155
 10
1314.781322239968
 20
-416.8194246787501
 10
1313.889042509288
 20
-417.2493725953131
 10
1313.889042509288
 20
-417.2493725953131
 10
1307.526640167129
 20
-419.6929788230008
 10
1306.977491946784
 20
-419.9399921692894
 10
1306.870693986737
 20
-419.9871899774373
 10
1306.781121504121
 20
-420.0436895433992
 10
1306.694994116993
 20
-420.107079300324
 10
1306.694994116993
 20
-420.107079300324
 10
1306.42627666914
 20
-420.3106844435061
 10
1306.42627666914
 20
-420.3106844435061
 10
1305.16743877883
 20
-421.2164000465783
 10
1303.75908374446
 20
-418.2618861584242
 10
1303.75908374446
 20
-418.2618861584242
 10
1303.75908374446
 20
-418.2618861584242
 10
1303.97612476003
 20
-419.2406377857875
 10
1303.75908374446
 20
-418.2618861584242
 97
        0
 97
        0
 75
     2
 76
     1
 98
        0
  0
ENDBLK
  5
375
330
372
100
AcDbEntity
  8
0
100
AcDbBlockEnd
  0
BLOCK
  5
37A
330
378
100
AcDbEntity
  8
0
100
AcDbBlockBegin
  2
block 35
 70
     0
 10
0.0
 20
0.0
 30
0.0
  3
block 35
  1

  0
SPLINE
  5
37C
330
378
100
AcDbEntity
  8
Layer 1
370
     0
100
AcDbSpline
210
0.0
220
0.0
230
1.0
 70
    11
 71
     3
 72
    14
 73
    10
 74
     0
 42
0.0000000001
 43
0.0000000001
 12
1.0
 22
0.0
 32
0.0
 13
1.0
 23
0.0
 33
0.0
 40
0.0
 40
0.0
 40
0.0
 40
0.0
 40
1.0
 40
1.0
 40
1.0
 40
2.0
 40
2.0
 40
2.0
 40
3.0
 40
3.0
 40
3.0
 40
3.0
 10
1277.243561832686
 20
-412.7418096624084
 30
0.0
 10
1277.027898855309
 20
-415.674274939453
 30
0.0
 10
1275.824182492763
 20
-417.6148972262943
 30
0.0
 10
1274.388955713608
 20
-420.0367993524249
 30
0.0
 10
1274.406870210131
 20
-416.9951245484978
 30
0.0
 10
1274.820281668361
 20
-414.2734991151505
 30
0.0
 10
1276.68890145956
 20
-412.3004929307479
 30
0.0
 10
1276.928680105334
 20
-411.9735533691976
 30
0.0
 10
1277.304195513226
 20
-412.0303974447043
 30
0.0
 10
1277.243561832686
 20
-412.7418096624084
 30
0.0
  0
ENDBLK
  5
37B
330
378
100
AcDbEntity
  8
0
100
AcDbBlockEnd
  0
BLOCK
  5
37F
330
37D
100
AcDbEntity
  8
0
100
AcDbBlockBegin
  2
block 36
 70
     0
 10
0.0
 20
0.0
 30
0.0
  3
block 36
  1

  0
SPLINE
  5
381
330
37D
100
AcDbEntity
  8
Layer 1
370
     0
100
AcDbSpline
210
0.0
220
0.0
230
1.0
 70
    11
 71
     3
 72
    14
 73
    10
 74
     0
 42
0.0000000001
 43
0.0000000001
 12
1.0
 22
0.0
 32
0.0
 13
1.0
 23
0.0
 33
0.0
 40
0.0
 40
0.0
 40
0.0
 40
0.0
 40
1.0
 40
1.0
 40
1.0
 40
2.0
 40
2.0
 40
2.0
 40
3.0
 40
3.0
 40
3.0
 40
3.0
 10
1306.475886044127
 20
-424.995325284345
 30
0.0
 10
1306.466239776769
 20
-425.2416496115404
 30
0.0
 10
1305.879195506082
 20
-425.8903610914129
 30
0.0
 10
1304.822929230305
 20
-426.0732956616797
 30
0.0
 10
1304.630003883131
 20
-424.8316832487956
 30
0.0
 10
1305.229450497564
 20
-424.1064906491505
 30
0.0
 10
1305.816494768251
 20
-424.1064906491505
 30
0.0
 10
1306.302253231671
 20
-424.1064906491505
 30
0.0
 10
1306.502757788913
 20
-424.2887362003203
 30
0.0
 10
1306.475886044127
 20
-424.995325284345
 30
0.0
  0
ENDBLK
  5
380
330
37D
100
AcDbEntity
  8
0
100
AcDbBlockEnd
  0
BLOCK
  5
384
330
382
100
AcDbEntity
  8
0
100
AcDbBlockBegin
  2
block 37
 70
     0
 10
0.0
 20
0.0
 30
0.0
  3
block 37
  1

  0
SPLINE
  5
386
330
382
100
AcDbEntity
  8
Layer 1
370
     0
100
AcDbSpline
210
0.0
220
0.0
230
1.0
 70
    11
 71
     3
 72
   200
 73
   196
 74
     0
 42
0.0000000001
 43
0.0000000001
 12
1.0
 22
0.0
 32
0.0
 13
1.0
 23
0.0
 33
0.0
 40
0.0
 40
0.0
 40
0.0
 40
0.0
 40
1.0
 40
1.0
 40
1.0
 40
2.0
 40
2.0
 40
2.0
 40
3.0
 40
3.0
 40
3.0
 40
4.0
 40
4.0
 40
4.0
 40
5.0
 40
5.0
 40
5.0
 40
6.0
 40
6.0
 40
6.0
 40
7.0
 40
7.0
 40
7.0
 40
8.0
 40
8.0
 40
8.0
 40
9.0
 40
9.0
 40
9.0
 40
10.0
 40
10.0
 40
10.0
 40
11.0
 40
11.0
 40
11.0
 40
12.0
 40
12.0
 40
12.0
 40
13.0
 40
13.0
 40
13.0
 40
14.0
 40
14.0
 40
14.0
 40
15.0
 40
15.0
 40
15.0
 40
16.0
 40
16.0
 40
16.0
 40
17.0
 40
17.0
 40
17.0
 40
18.0
 40
18.0
 40
18.0
 40
19.0
 40
19.0
 40
19.0
 40
20.0
 40
20.0
 40
20.0
 40
21.0
 40
21.0
 40
21.0
 40
22.0
 40
22.0
 40
22.0
 40
23.0
 40
23.0
 40
23.0
 40
24.0
 40
24.0
 40
24.0
 40
25.0
 40
25.0
 40
25.0
 40
26.0
 40
26.0
 40
26.0
 40
27.0
 40
27.0
 40
27.0
 40
28.0
 40
28.0
 40
28.0
 40
29.0
 40
29.0
 40
29.0
 40
30.0
 40
30.0
 40
30.0
 40
31.0
 40
31.0
 40
31.0
 40
32.0
 40
32.0
 40
32.0
 40
33.0
 40
33.0
 40
33.0
 40
34.0
 40
34.0
 40
34.0
 40
35.0
 40
35.0
 40
35.0
 40
36.0
 40
36.0
 40
36.0
 40
37.0
 40
37.0
 40
37.0
 40
38.0
 40
38.0
 40
38.0
 40
39.0
 40
39.0
 40
39.0
 40
40.0
 40
40.0
 40
40.0
 40
41.0
 40
41.0
 40
41.0
 40
42.0
 40
42.0
 40
42.0
 40
43.0
 40
43.0
 40
43.0
 40
44.0
 40
44.0
 40
44.0
 40
45.0
 40
45.0
 40
45.0
 40
46.0
 40
46.0
 40
46.0
 40
47.0
 40
47.0
 40
47.0
 40
48.0
 40
48.0
 40
48.0
 40
49.0
 40
49.0
 40
49.0
 40
50.0
 40
50.0
 40
50.0
 40
51.0
 40
51.0
 40
51.0
 40
52.0
 40
52.0
 40
52.0
 40
53.0
 40
53.0
 40
53.0
 40
54.0
 40
54.0
 40
54.0
 40
55.0
 40
55.0
 40
55.0
 40
56.0
 40
56.0
 40
56.0
 40
57.0
 40
57.0
 40
57.0
 40
58.0
 40
58.0
 40
58.0
 40
59.0
 40
59.0
 40
59.0
 40
60.0
 40
60.0
 40
60.0
 40
61.0
 40
61.0
 40
61.0
 40
62.0
 40
62.0
 40
62.0
 40
63.0
 40
63.0
 40
63.0
 40
64.0
 40
64.0
 40
64.0
 40
65.0
 40
65.0
 40
65.0
 40
65.0
 10
1314.272826146345
 20
-427.5801804269279
 30
0.0
 10
1314.272826146345
 20
-427.5801804269279
 30
0.0
 10
1314.501580486565
 20
-428.5351608954392
 30
0.0
 10
1314.501580486565
 20
-428.5351608954392
 30
0.0
 10
1314.627670981326
 20
-429.0305656262181
 30
0.0
 10
1314.773054010803
 20
-429.4908303830475
 30
0.0
 10
1315.016277752062
 20
-429.9438604393579
 30
0.0
 10
1316.559680529454
 20
-432.0091951827652
 30
0.0
 10
1320.499491726385
 20
-431.7725171229285
 30
0.0
 10
1322.518317680742
 20
-431.1465432732586
 30
0.0
 10
1323.636595675254
 20
-430.7989331387969
 30
0.0
 10
1324.710776447555
 20
-430.2246357214057
 30
0.0
 10
1325.718122367442
 20
-429.6258781260693
 30
0.0
 10
1328.286096542147
 20
-431.3139749138417
 30
0.0
 10
1331.529309431961
 20
-431.8362513894056
 30
0.0
 10
1334.778723493649
 20
-431.848998242701
 30
0.0
 10
1338.09979554143
 20
-431.8614005864479
 30
0.0
 10
1341.490458518013
 20
-431.3387796013355
 30
0.0
 10
1344.27754076558
 20
-430.9329473531731
 30
0.0
 10
1347.241700921089
 20
-430.7427780823873
 30
0.0
 10
1349.60503642397
 20
-429.3451028440214
 30
0.0
 10
1352.723536857219
 20
-430.0158629349996
 30
0.0
 10
1353.396019495939
 20
-429.7912427093613
 30
0.0
 10
1353.925875181571
 20
-429.4481111990304
 30
0.0
 10
1353.876265806583
 20
-428.6119865247603
 30
0.0
 10
1353.574475442075
 20
-427.8719800145286
 30
0.0
 10
1353.156240850166
 20
-427.3548711821926
 30
0.0
 10
1352.284631692398
 20
-427.2856247629391
 30
0.0
 10
1350.814264939293
 20
-427.918144294031
 30
0.0
 10
1349.1544179345
 20
-427.7307310996334
 30
0.0
 10
1347.619283386272
 20
-428.1076245457197
 30
0.0
 10
1343.717368239678
 20
-429.0171297538257
 30
0.0
 10
1339.563272103564
 20
-429.3740416460975
 30
0.0
 10
1335.148037729668
 20
-429.6131312727739
 30
0.0
 10
1332.410564857088
 20
-429.5900491330227
 30
0.0
 10
1328.950310951703
 20
-429.5476744585541
 30
0.0
 10
1327.041728052875
 20
-427.2404940120823
 30
0.0
 10
1326.830888209178
 20
-426.5452737431589
 30
0.0
 10
1327.401396021535
 20
-425.6223326626605
 30
0.0
 10
1327.174019719509
 20
-424.6339347679423
 30
0.0
 10
1326.817796846334
 20
-423.9442266517952
 30
0.0
 10
1326.234197671133
 20
-423.4877514999997
 30
0.0
 10
1325.386015162664
 20
-423.7116827065409
 30
0.0
 10
1324.222950926844
 20
-424.5519414953934
 30
0.0
 10
1324.238798366076
 20
-425.9385924282064
 30
0.0
 10
1324.34284024973
 20
-427.1991528662593
 30
0.0
 10
1322.668523843899
 20
-429.3630173405447
 30
0.0
 10
1318.814840034098
 20
-430.2663213767772
 30
0.0
 10
1317.164639296664
 20
-428.5885598754606
 30
0.0
 10
1317.078511909532
 20
-428.2919371541806
 30
0.0
 10
1316.913147326241
 20
-427.7097160171733
 30
0.0
 10
1317.081267985921
 20
-427.2814906483568
 30
0.0
 10
1317.096426406056
 20
-427.229814216078
 30
0.0
 10
1317.112273845288
 20
-427.1736591596685
 30
0.0
 10
1317.119853055355
 20
-427.1099248931914
 30
0.0
 10
1317.205980442487
 20
-426.4598353751247
 30
0.0
 10
1316.992384522401
 20
-425.9726988735104
 30
0.0
 10
1316.397761041647
 20
-425.7615145202645
 30
0.0
 10
1315.267080703388
 20
-425.346380514292
 30
0.0
 10
1315.333915555802
 20
-424.8389179493146
 30
0.0
 10
1314.53327536503
 20
-424.1323288652899
 30
0.0
 10
1313.709897544055
 20
-423.3740633489864
 30
0.0
 10
1312.750782960961
 20
-423.7392434704229
 30
0.0
 10
1312.17889711041
 20
-424.4988870249205
 30
0.0
 10
1312.038337214612
 20
-426.532871399412
 30
0.0
 10
1310.601732397263
 20
-428.1999531047244
 30
0.0
 10
1309.021811607727
 20
-429.2951489594853
 30
0.0
 10
1308.012398630549
 20
-429.6441371321411
 30
0.0
 10
1306.747359568365
 20
-429.5287264333853
 30
0.0
 10
1305.921225671002
 20
-428.9682093979351
 30
0.0
 10
1305.646996070376
 20
-428.7787291462463
 30
0.0
 10
1305.550533396789
 20
-428.5692673407432
 30
0.0
 10
1305.545021244013
 20
-428.421472744426
 30
0.0
 10
1306.862425757573
 20
-428.0507804702131
 30
0.0
 10
1308.043404489916
 20
-427.1550556440481
 30
0.0
 10
1308.717954185928
 20
-425.9244675367169
 30
0.0
 10
1309.516527319409
 20
-423.7816181448915
 30
0.0
 10
1307.967612389241
 20
-421.4944192522341
 30
0.0
 10
1305.587051408933
 20
-421.8265264570122
 30
0.0
 10
1303.391836565732
 20
-422.1338289742965
 30
0.0
 10
1302.309387564266
 20
-423.6834329235618
 30
0.0
 10
1302.413429447921
 20
-426.353726434179
 30
0.0
 10
1301.206267989889
 20
-426.3034280400943
 30
0.0
 10
1300.124508007521
 20
-425.9017299065142
 30
0.0
 10
1299.002784917524
 20
-425.4504223979465
 30
0.0
 10
1298.040914258042
 20
-425.0618156272103
 30
0.0
 10
1297.868659483779
 20
-424.1588561005264
 30
0.0
 10
1296.467883659477
 20
-424.4203388478568
 30
0.0
 10
1295.366142123294
 20
-425.5854701409683
 30
0.0
 10
1296.138532531087
 20
-426.3509703577908
 30
0.0
 10
1296.860624544795
 20
-427.271155361901
 30
0.0
 10
1297.584094596698
 20
-428.1889287991716
 30
0.0
 10
1297.551021680039
 20
-429.5655889550774
 30
0.0
 10
1296.405182921645
 20
-430.2160229826926
 30
0.0
 10
1294.762561394278
 20
-430.6053187725258
 30
0.0
 10
1293.38865731476
 20
-429.1673359169826
 30
0.0
 10
1292.389579624038
 20
-428.1014233738463
 30
0.0
 10
1292.402670986882
 20
-427.4658032568177
 30
0.0
 10
1292.421274502502
 20
-426.2321145635497
 30
0.0
 10
1292.257976976501
 20
-425.6884784959773
 30
0.0
 10
1291.932759962694
 20
-424.5974167557986
 30
0.0
 10
1291.227893426412
 20
-423.6606952933592
 30
0.0
 10
1289.933915562152
 20
-424.093054776758
 30
0.0
 10
1289.125696161312
 20
-425.167924568156
 30
0.0
 10
1289.435065735888
 20
-426.4553567509939
 30
0.0
 10
1289.878105015291
 20
-427.5519306439489
 30
0.0
 10
1289.51636998934
 20
-428.6750317721404
 30
0.0
 10
1288.981691170029
 20
-429.7702276269013
 30
0.0
 10
1287.933004104319
 20
-430.3269550573177
 30
0.0
 10
1286.714129321637
 20
-430.6173766067242
 30
0.0
 10
1284.591950502723
 20
-430.325921528672
 30
0.0
 10
1283.714140173082
 20
-428.1499992201882
 30
0.0
 10
1283.764438567167
 20
-427.8609557089758
 30
0.0
 10
1283.898108271994
 20
-427.0386114166467
 30
0.0
 10
1283.899486310188
 20
-426.2004196850854
 30
0.0
 10
1283.900864348382
 20
-425.6829663432009
 30
0.0
 10
1283.852633011589
 20
-425.1231383268478
 30
0.0
 10
1283.685890390103
 20
-424.6666631750522
 30
0.0
 10
1283.140187265239
 20
-423.1835495686521
 30
0.0
 10
1280.916033619962
 20
-423.1990524983357
 30
0.0
 10
1280.917411658156
 20
-425.7498011956147
 30
0.0
 10
1280.917411658156
 20
-426.3599276060525
 30
0.0
 10
1281.008362178967
 20
-426.9717765642328
 30
0.0
 10
1281.150989132056
 20
-427.5629549495017
 30
0.0
 10
1280.266288611444
 20
-429.380242817971
 30
0.0
 10
1278.445211137941
 20
-429.7450784298589
 30
0.0
 10
1277.166391693816
 20
-429.5004766504062
 30
0.0
 10
1275.288814654355
 20
-428.5423955959582
 30
0.0
 10
1274.682477848951
 20
-426.4997984827536
 30
0.0
 10
1274.417205496587
 20
-424.3969121985571
 30
0.0
 10
1275.760792735834
 20
-422.5448288656868
 30
0.0
 10
1276.893540131384
 20
-420.9221888921341
 30
0.0
 10
1278.065561615466
 20
-418.6680629161352
 30
0.0
 10
1279.410526892908
 20
-416.1693351606834
 30
0.0
 10
1279.931425330278
 20
-415.1475198397583
 30
0.0
 10
1280.036156233029
 20
-412.0672599663965
 30
0.0
 10
1279.715073333804
 20
-408.2721427798452
 30
0.0
 10
1275.04696895129
 20
-409.3559698195048
 30
0.0
 10
1274.051336356053
 20
-411.3672165637937
 30
0.0
 10
1271.673531452134
 20
-415.0923983119943
 30
0.0
 10
1271.263565089389
 20
-420.0988110711594
 30
0.0
 10
1271.682488700395
 20
-424.3359340084682
 30
0.0
 10
1271.216022771692
 20
-425.2123662999157
 30
0.0
 10
1270.512534273604
 20
-425.8855379577336
 30
0.0
 10
1269.819381061972
 20
-426.5786911693658
 30
0.0
 10
1269.17997133991
 20
-427.1292174279088
 30
0.0
 10
1268.656316826152
 20
-427.2780455528716
 30
0.0
 10
1268.282868475551
 20
-428.1324292332135
 30
0.0
 10
1268.468903631754
 20
-428.477283291287
 30
0.0
 10
1268.523336140421
 20
-428.5320603095025
 30
0.0
 10
1268.96499738163
 20
-428.7983661905123
 30
0.0
 10
1270.325121079207
 20
-429.215567253776
 30
0.0
 10
1271.134029499143
 20
-428.3866772800249
 30
0.0
 10
1272.000815523232
 20
-427.5557202489827
 30
0.0
 10
1272.000815523232
 20
-427.5557202489827
 30
0.0
 10
1272.378397988416
 20
-427.2043205094872
 30
0.0
 10
1272.378397988416
 20
-427.2043205094872
 30
0.0
 10
1273.274811833678
 20
-429.0808640203028
 30
0.0
 10
1274.643892779516
 20
-431.2343932081325
 30
0.0
 10
1276.85013192827
 20
-431.8479647140554
 30
0.0
 10
1278.128951372395
 20
-432.0625941627865
 30
0.0
 10
1279.677866302563
 20
-432.0543259336219
 30
0.0
 10
1280.836107404704
 20
-431.3308558817195
 30
0.0
 10
1280.836107404704
 20
-431.3308558817195
 30
0.0
 10
1282.542118689
 20
-430.23531551741
 30
0.0
 10
1282.542118689
 20
-430.23531551741
 30
0.0
 10
1283.783042082787
 20
-431.6987920795441
 30
0.0
 10
1285.39396873169
 20
-432.8749476782084
 30
0.0
 10
1287.520281665186
 20
-432.6747876305154
 30
0.0
 10
1288.922435527683
 20
-432.614153949975
 30
0.0
 10
1290.031756273933
 20
-431.6154207688011
 30
0.0
 10
1290.927481100098
 20
-430.6452818801547
 30
0.0
 10
1290.927481100098
 20
-430.6452818801547
 30
0.0
 10
1291.442178365594
 20
-430.0702954436665
 30
0.0
 10
1291.442178365594
 20
-430.0702954436665
 30
0.0
 10
1292.822283616985
 20
-431.5217141716023
 30
0.0
 10
1294.429765170403
 20
-432.8746031686599
 30
0.0
 10
1296.835130838204
 20
-432.4291523224171
 30
0.0
 10
1298.309631705891
 20
-432.2386385420828
 30
0.0
 10
1299.094424457431
 20
-431.4245624789182
 30
0.0
 10
1299.670444422565
 20
-430.1343742196922
 30
0.0
 10
1299.941917946803
 20
-429.5028882172459
 30
0.0
 10
1299.863369769739
 20
-428.8142136297444
 30
0.0
 10
1299.795156879131
 20
-428.1551668634161
 30
0.0
 10
1300.797679665339
 20
-428.4135490248099
 30
0.0
 10
1301.837409482787
 20
-428.6274894544439
 30
0.0
 10
1302.873005185653
 20
-428.6667635429757
 30
0.0
 10
1303.227161001537
 20
-429.5824699229552
 30
0.0
 10
1303.853479360755
 20
-430.6459708992518
 30
0.0
 10
1304.776764950802
 20
-431.0714401916802
 30
0.0
 10
1306.775609351344
 20
-431.9923142148874
 30
0.0
 10
1306.88860848326
 20
-431.8407300135364
 30
0.0
 10
1308.768252580013
 20
-431.7411667540127
 30
0.0
 10
1311.167417075941
 20
-431.2957159077699
 30
0.0
 10
1312.929927926195
 20
-429.4219284733425
 30
0.0
 10
1314.272826146345
 20
-427.5801804269279
 30
0.0
  0
ENDBLK
  5
385
330
382
100
AcDbEntity
  8
0
100
AcDbBlockEnd
  0
BLOCK
  5
389
330
387
100
AcDbEntity
  8
0
100
AcDbBlockBegin
  2
block 38
 70
     0
 10
0.0
 20
0.0
 30
0.0
  3
block 38
  1

  0
SPLINE
  5
38B
330
387
100
AcDbEntity
  8
Layer 1
370
     0
100
AcDbSpline
210
0.0
220
0.0
230
1.0
 70
    11
 71
     3
 72
    53
 73
    49
 74
     0
 42
0.0000000001
 43
0.0000000001
 12
1.0
 22
0.0
 32
0.0
 13
1.0
 23
0.0
 33
0.0
 40
0.0
 40
0.0
 40
0.0
 40
0.0
 40
1.0
 40
1.0
 40
1.0
 40
2.0
 40
2.0
 40
2.0
 40
3.0
 40
3.0
 40
3.0
 40
4.0
 40
4.0
 40
4.0
 40
5.0
 40
5.0
 40
5.0
 40
6.0
 40
6.0
 40
6.0
 40
7.0
 40
7.0
 40
7.0
 40
8.0
 40
8.0
 40
8.0
 40
9.0
 40
9.0
 40
9.0
 40
10.0
 40
10.0
 40
10.0
 40
11.0
 40
11.0
 40
11.0
 40
12.0
 40
12.0
 40
12.0
 40
13.0
 40
13.0
 40
13.0
 40
14.0
 40
14.0
 40
14.0
 40
15.0
 40
15.0
 40
15.0
 40
16.0
 40
16.0
 40
16.0
 40
16.0
 10
1255.700690744321
 20
-414.2145879823527
 30
0.0
 10
1255.700690744321
 20
-414.2145879823527
 30
0.0
 10
1255.191505631601
 20
-413.743643429519
 30
0.0
 10
1255.191505631601
 20
-413.743643429519
 30
0.0
 10
1255.191505631601
 20
-413.743643429519
 30
0.0
 10
1255.682087228701
 20
-413.5066208601338
 30
0.0
 10
1255.682087228701
 20
-413.5066208601338
 30
0.0
 10
1256.4530995983
 20
-413.2592630042929
 30
0.0
 10
1257.289568782119
 20
-413.1975957951069
 30
0.0
 10
1257.68162064834
 20
-414.0926316021748
 30
0.0
 10
1257.77739430283
 20
-414.8777688632633
 30
0.0
 10
1257.450110231731
 20
-415.3518140020336
 30
0.0
 10
1256.894071820412
 20
-415.8410175609391
 30
0.0
 10
1255.697245648836
 20
-415.949882578273
 30
0.0
 10
1254.89522741987
 20
-417.0526576431015
 30
0.0
 10
1254.155220909638
 20
-417.8791360500129
 30
0.0
 10
1253.301526248393
 20
-419.8914163229474
 30
0.0
 10
1254.004325727384
 20
-422.3091843344957
 30
0.0
 10
1254.422560319294
 20
-424.3359340084682
 30
0.0
 10
1254.422560319294
 20
-424.3359340084682
 30
0.0
 10
1254.678186404299
 20
-424.5846699025032
 30
0.0
 10
1254.678186404299
 20
-424.5846699025032
 30
0.0
 10
1255.139140180226
 20
-425.0411450542988
 30
0.0
 10
1255.513966569021
 20
-425.5269035177191
 30
0.0
 10
1255.480893652362
 20
-426.2238463343851
 30
0.0
 10
1255.041988487542
 20
-427.4037915380832
 30
0.0
 10
1252.700012576669
 20
-427.9777444459258
 30
0.0
 10
1252.450587663537
 20
-426.0939662345912
 30
0.0
 10
1252.026840918851
 20
-425.346380514292
 30
0.0
 10
1251.856653201879
 20
-424.8037779753651
 30
0.0
 10
1251.747788184546
 20
-424.2501511308855
 30
0.0
 10
1251.747788184546
 20
-424.2501511308855
 30
0.0
 10
1251.671307064773
 20
-423.8133130233558
 30
0.0
 10
1251.671307064773
 20
-423.8133130233558
 30
0.0
 10
1251.52730207349
 20
-424.9047192730829
 30
0.0
 10
1251.70231292414
 20
-426.1756149975916
 30
0.0
 10
1251.884902984859
 20
-427.2480732221499
 30
0.0
 10
1252.261107411848
 20
-428.6681415811698
 30
0.0
 10
1253.240892567853
 20
-429.7526576399265
 30
0.0
 10
1254.645113487641
 20
-430.3228209427353
 30
0.0
 10
1257.863521689961
 20
-431.0859095927182
 30
0.0
 10
1260.518312270895
 20
-428.8872496540317
 30
0.0
 10
1262.354548164533
 20
-426.5084112214667
 30
0.0
 10
1265.246361314852
 20
-422.3787752632978
 30
0.0
 10
1267.814335489557
 20
-417.2011412585157
 30
0.0
 10
1265.47787173146
 20
-412.1985181043844
 30
0.0
 10
1262.689411445699
 20
-408.7093253969234
 30
0.0
 10
1257.219288834219
 20
-410.329898313185
 30
0.0
 10
1255.700690744321
 20
-414.2145879823527
 30
0.0
  0
ENDBLK
  5
38A
330
387
100
AcDbEntity
  8
0
100
AcDbBlockEnd
  0
BLOCK
  5
38E
330
38C
100
AcDbEntity
  8
0
100
AcDbBlockBegin
  2
block 39
 70
     0
 10
0.0
 20
0.0
 30
0.0
  3
block 39
  1

  0
SPLINE
  5
390
330
38C
100
AcDbEntity
  8
Layer 1
370
     0
100
AcDbSpline
210
0.0
220
0.0
230
1.0
 70
    11
 71
     3
 72
    23
 73
    19
 74
     0
 42
0.0000000001
 43
0.0000000001
 12
1.0
 22
0.0
 32
0.0
 13
1.0
 23
0.0
 33
0.0
 40
0.0
 40
0.0
 40
0.0
 40
0.0
 40
1.0
 40
1.0
 40
1.0
 40
2.0
 40
2.0
 40
2.0
 40
3.0
 40
3.0
 40
3.0
 40
4.0
 40
4.0
 40
4.0
 40
5.0
 40
5.0
 40
5.0
 40
6.0
 40
6.0
 40
6.0
 40
6.0
 10
1264.360282756045
 20
-428.2151115248595
 30
0.0
 10
1262.095476984042
 20
-431.290548264542
 30
0.0
 10
1258.40577971934
 20
-433.3400355687172
 30
0.0
 10
1254.457011274146
 20
-432.7839971573978
 30
0.0
 10
1251.673374122064
 20
-432.042612608972
 30
0.0
 10
1249.871589183279
 20
-429.338212653051
 30
0.0
 10
1249.411324426449
 20
-426.6785989384381
 30
0.0
 10
1248.850462881451
 20
-423.2018085747239
 30
0.0
 10
1249.793041006215
 20
-420.0354213142308
 30
0.0
 10
1251.629276899853
 20
-417.4181822740865
 30
0.0
 10
1252.179803158396
 20
-413.6165194061133
 30
0.0
 10
1254.341945084939
 20
-409.9657517203941
 30
0.0
 10
1258.115013660384
 20
-408.2876457095289
 30
0.0
 10
1260.467324857713
 20
-407.4294724241531
 30
0.0
 10
1265.734186835563
 20
-407.0515454494212
 30
0.0
 10
1267.518746296922
 20
-410.9090188642555
 30
0.0
 10
1270.758514091251
 20
-416.8838479643243
 30
0.0
 10
1267.509789048661
 20
-423.443998787337
 30
0.0
 10
1264.360282756045
 20
-428.2151115248595
 30
0.0
  0
ENDBLK
  5
38F
330
38C
100
AcDbEntity
  8
0
100
AcDbBlockEnd
  0
BLOCK
  5
393
330
391
100
AcDbEntity
  8
0
100
AcDbBlockBegin
  2
block 40
 70
     0
 10
0.0
 20
0.0
 30
0.0
  3
block 40
  1

  0
SPLINE
  5
395
330
391
100
AcDbEntity
  8
Layer 1
370
     0
100
AcDbSpline
210
0.0
220
0.0
230
1.0
 70
    11
 71
     3
 72
    17
 73
    13
 74
     0
 42
0.0000000001
 43
0.0000000001
 12
1.0
 22
0.0
 32
0.0
 13
1.0
 23
0.0
 33
0.0
 40
0.0
 40
0.0
 40
0.0
 40
0.0
 40
1.0
 40
1.0
 40
1.0
 40
2.0
 40
2.0
 40
2.0
 40
3.0
 40
3.0
 40
3.0
 40
4.0
 40
4.0
 40
4.0
 40
4.0
 10
1326.943198321997
 20
-421.1750589007514
 30
0.0
 10
1327.096160561542
 20
-420.7099710102427
 30
0.0
 10
1327.046551186554
 20
-420.0908873515433
 30
0.0
 10
1326.768187471346
 20
-419.6626619827268
 30
0.0
 10
1326.165984780524
 20
-418.9047409759718
 30
0.0
 10
1325.005676621092
 20
-418.3662725516273
 30
0.0
 10
1324.285651664675
 20
-419.3594935800248
 30
0.0
 10
1323.923227619627
 20
-420.2459166483796
 30
0.0
 10
1324.194701143864
 20
-421.128205602152
 30
0.0
 10
1324.906457871117
 20
-421.7366094648472
 30
0.0
 10
1325.663000839678
 20
-421.9178214873713
 30
0.0
 10
1326.524963730087
 20
-422.0990335098954
 30
0.0
 10
1326.943198321997
 20
-421.1750589007514
 30
0.0
  0
ENDBLK
  5
394
330
391
100
AcDbEntity
  8
0
100
AcDbBlockEnd
  0
BLOCK
  5
398
330
396
100
AcDbEntity
  8
0
100
AcDbBlockBegin
  2
block 41
 70
     0
 10
0.0
 20
0.0
 30
0.0
  3
block 41
  1

  0
SPLINE
  5
39A
330
396
100
AcDbEntity
  8
Layer 1
370
     0
100
AcDbSpline
210
0.0
220
0.0
230
1.0
 70
    11
 71
     3
 72
    17
 73
    13
 74
     0
 42
0.0000000001
 43
0.0000000001
 12
1.0
 22
0.0
 32
0.0
 13
1.0
 23
0.0
 33
0.0
 40
0.0
 40
0.0
 40
0.0
 40
0.0
 40
1.0
 40
1.0
 40
1.0
 40
2.0
 40
2.0
 40
2.0
 40
3.0
 40
3.0
 40
3.0
 40
4.0
 40
4.0
 40
4.0
 40
4.0
 10
1283.504678367579
 20
-419.75533505128
 30
0.0
 10
1283.115382577745
 20
-420.3134405198905
 30
0.0
 10
1282.154200937361
 20
-420.3148185580845
 30
0.0
 10
1281.657418168388
 20
-420.1119024340034
 30
0.0
 10
1280.938771250165
 20
-419.8187248082086
 30
0.0
 10
1280.255953324988
 20
-418.8706345306678
 30
0.0
 10
1280.782363915134
 20
-417.9538946220429
 30
0.0
 10
1281.370097204918
 20
-416.9307012629237
 30
0.0
 10
1282.589661006696
 20
-417.21182105452
 30
0.0
 10
1283.2194244614
 20
-417.7247957722738
 30
0.0
 10
1283.614232404009
 20
-418.045878671499
 30
0.0
 10
1284.030399938628
 20
-419.0036152163985
 30
0.0
 10
1283.504678367579
 20
-419.75533505128
 30
0.0
  0
ENDBLK
  5
399
330
396
100
AcDbEntity
  8
0
100
AcDbBlockEnd
  0
BLOCK
  5
39D
330
39B
100
AcDbEntity
  8
0
100
AcDbBlockBegin
  2
block 42
 70
     0
 10
0.0
 20
0.0
 30
0.0
  3
block 42
  1

  0
SPLINE
  5
39F
330
39B
100
AcDbEntity
  8
Layer 1
370
     0
100
AcDbSpline
210
0.0
220
0.0
230
1.0
 70
    11
 71
     3
 72
    17
 73
    13
 74
     0
 42
0.0000000001
 43
0.0000000001
 12
1.0
 22
0.0
 32
0.0
 13
1.0
 23
0.0
 33
0.0
 40
0.0
 40
0.0
 40
0.0
 40
0.0
 40
1.0
 40
1.0
 40
1.0
 40
2.0
 40
2.0
 40
2.0
 40
3.0
 40
3.0
 40
3.0
 40
4.0
 40
4.0
 40
4.0
 40
4.0
 10
1277.243561832686
 20
-412.7418096624084
 30
0.0
 10
1277.027898855313
 20
-415.674274939453
 30
0.0
 10
1275.824182492763
 20
-417.6148972262981
 30
0.0
 10
1274.388955713608
 20
-420.0367993524288
 30
0.0
 10
1274.406870210131
 20
-416.9951245484978
 30
0.0
 10
1274.820281668361
 20
-414.2734991151505
 30
0.0
 10
1276.68890145956
 20
-412.3004929307517
 30
0.0
 10
1276.928680105334
 20
-411.9735533692015
 30
0.0
 10
1277.243561832686
 20
-412.7418096624084
 30
0.0
 10
1277.243561832686
 20
-412.7418096624084
 30
0.0
 10
1277.243561832686
 20
-412.7418096624084
 30
0.0
 10
1277.304195513226
 20
-412.0303974447043
 30
0.0
 10
1277.243561832686
 20
-412.7418096624084
 30
0.0
  0
SPLINE
  5
3A0
330
39B
100
AcDbEntity
  8
Layer 1
370
     0
100
AcDbSpline
210
0.0
220
0.0
230
1.0
 70
    11
 71
     3
 72
    17
 73
    13
 74
     0
 42
0.0000000001
 43
0.0000000001
 12
1.0
 22
0.0
 32
0.0
 13
1.0
 23
0.0
 33
0.0
 40
0.0
 40
0.0
 40
0.0
 40
0.0
 40
1.0
 40
1.0
 40
1.0
 40
2.0
 40
2.0
 40
2.0
 40
3.0
 40
3.0
 40
3.0
 40
4.0
 40
4.0
 40
4.0
 40
4.0
 10
1306.475886044127
 20
-424.995325284345
 30
0.0
 10
1306.466239776769
 20
-425.2416496115404
 30
0.0
 10
1305.879195506086
 20
-425.8903610914168
 30
0.0
 10
1304.822929230305
 20
-426.0732956616797
 30
0.0
 10
1304.630003883131
 20
-424.8316832487995
 30
0.0
 10
1305.229450497564
 20
-424.1064906491505
 30
0.0
 10
1305.816494768255
 20
-424.1064906491505
 30
0.0
 10
1306.302253231671
 20
-424.1064906491505
 30
0.0
 10
1306.475886044127
 20
-424.995325284345
 30
0.0
 10
1306.475886044127
 20
-424.995325284345
 30
0.0
 10
1306.475886044127
 20
-424.995325284345
 30
0.0
 10
1306.502757788913
 20
-424.2887362003241
 30
0.0
 10
1306.475886044127
 20
-424.995325284345
 30
0.0
  0
SPLINE
  5
3A1
330
39B
100
AcDbEntity
  8
Layer 1
370
     0
100
AcDbSpline
210
0.0
220
0.0
230
1.0
 70
    11
 71
     3
 72
   203
 73
   199
 74
     0
 42
0.0000000001
 43
0.0000000001
 12
1.0
 22
0.0
 32
0.0
 13
1.0
 23
0.0
 33
0.0
 40
0.0
 40
0.0
 40
0.0
 40
0.0
 40
1.0
 40
1.0
 40
1.0
 40
2.0
 40
2.0
 40
2.0
 40
3.0
 40
3.0
 40
3.0
 40
4.0
 40
4.0
 40
4.0
 40
5.0
 40
5.0
 40
5.0
 40
6.0
 40
6.0
 40
6.0
 40
7.0
 40
7.0
 40
7.0
 40
8.0
 40
8.0
 40
8.0
 40
9.0
 40
9.0
 40
9.0
 40
10.0
 40
10.0
 40
10.0
 40
11.0
 40
11.0
 40
11.0
 40
12.0
 40
12.0
 40
12.0
 40
13.0
 40
13.0
 40
13.0
 40
14.0
 40
14.0
 40
14.0
 40
15.0
 40
15.0
 40
15.0
 40
16.0
 40
16.0
 40
16.0
 40
17.0
 40
17.0
 40
17.0
 40
18.0
 40
18.0
 40
18.0
 40
19.0
 40
19.0
 40
19.0
 40
20.0
 40
20.0
 40
20.0
 40
21.0
 40
21.0
 40
21.0
 40
22.0
 40
22.0
 40
22.0
 40
23.0
 40
23.0
 40
23.0
 40
24.0
 40
24.0
 40
24.0
 40
25.0
 40
25.0
 40
25.0
 40
26.0
 40
26.0
 40
26.0
 40
27.0
 40
27.0
 40
27.0
 40
28.0
 40
28.0
 40
28.0
 40
29.0
 40
29.0
 40
29.0
 40
30.0
 40
30.0
 40
30.0
 40
31.0
 40
31.0
 40
31.0
 40
32.0
 40
32.0
 40
32.0
 40
33.0
 40
33.0
 40
33.0
 40
34.0
 40
34.0
 40
34.0
 40
35.0
 40
35.0
 40
35.0
 40
36.0
 40
36.0
 40
36.0
 40
37.0
 40
37.0
 40
37.0
 40
38.0
 40
38.0
 40
38.0
 40
39.0
 40
39.0
 40
39.0
 40
40.0
 40
40.0
 40
40.0
 40
41.0
 40
41.0
 40
41.0
 40
42.0
 40
42.0
 40
42.0
 40
43.0
 40
43.0
 40
43.0
 40
44.0
 40
44.0
 40
44.0
 40
45.0
 40
45.0
 40
45.0
 40
46.0
 40
46.0
 40
46.0
 40
47.0
 40
47.0
 40
47.0
 40
48.0
 40
48.0
 40
48.0
 40
49.0
 40
49.0
 40
49.0
 40
50.0
 40
50.0
 40
50.0
 40
51.0
 40
51.0
 40
51.0
 40
52.0
 40
52.0
 40
52.0
 40
53.0
 40
53.0
 40
53.0
 40
54.0
 40
54.0
 40
54.0
 40
55.0
 40
55.0
 40
55.0
 40
56.0
 40
56.0
 40
56.0
 40
57.0
 40
57.0
 40
57.0
 40
58.0
 40
58.0
 40
58.0
 40
59.0
 40
59.0
 40
59.0
 40
60.0
 40
60.0
 40
60.0
 40
61.0
 40
61.0
 40
61.0
 40
62.0
 40
62.0
 40
62.0
 40
63.0
 40
63.0
 40
63.0
 40
64.0
 40
64.0
 40
64.0
 40
65.0
 40
65.0
 40
65.0
 40
66.0
 40
66.0
 40
66.0
 40
66.0
 10
1314.272826146345
 20
-427.5801804269318
 30
0.0
 10
1314.272826146345
 20
-427.5801804269318
 30
0.0
 10
1314.501580486565
 20
-428.5351608954392
 30
0.0
 10
1314.501580486565
 20
-428.5351608954392
 30
0.0
 10
1314.627670981326
 20
-429.0305656262181
 30
0.0
 10
1314.773054010803
 20
-429.4908303830475
 30
0.0
 10
1315.016277752062
 20
-429.9438604393617
 30
0.0
 10
1316.559680529454
 20
-432.009195182769
 30
0.0
 10
1320.499491726385
 20
-431.7725171229323
 30
0.0
 10
1322.518317680742
 20
-431.1465432732586
 30
0.0
 10
1323.636595675254
 20
-430.7989331387969
 30
0.0
 10
1324.710776447555
 20
-430.2246357214096
 30
0.0
 10
1325.718122367442
 20
-429.6258781260731
 30
0.0
 10
1328.286096542147
 20
-431.3139749138417
 30
0.0
 10
1331.529309431961
 20
-431.8362513894094
 30
0.0
 10
1334.778723493649
 20
-431.8489982427049
 30
0.0
 10
1338.09979554143
 20
-431.8614005864479
 30
0.0
 10
1341.490458518013
 20
-431.3387796013394
 30
0.0
 10
1344.27754076558
 20
-430.9329473531731
 30
0.0
 10
1347.241700921089
 20
-430.7427780823912
 30
0.0
 10
1349.60503642397
 20
-429.3451028440214
 30
0.0
 10
1352.723536857219
 20
-430.0158629349996
 30
0.0
 10
1353.396019495939
 20
-429.7912427093651
 30
0.0
 10
1353.925875181571
 20
-429.4481111990304
 30
0.0
 10
1353.876265806583
 20
-428.6119865247603
 30
0.0
 10
1353.574475442075
 20
-427.8719800145286
 30
0.0
 10
1353.156240850166
 20
-427.3548711821965
 30
0.0
 10
1352.284631692398
 20
-427.2856247629391
 30
0.0
 10
1350.814264939293
 20
-427.9181442940348
 30
0.0
 10
1349.1544179345
 20
-427.7307310996334
 30
0.0
 10
1347.619283386272
 20
-428.1076245457197
 30
0.0
 10
1343.717368239678
 20
-429.0171297538257
 30
0.0
 10
1339.563272103564
 20
-429.3740416460975
 30
0.0
 10
1335.148037729668
 20
-429.6131312727777
 30
0.0
 10
1332.410564857088
 20
-429.5900491330265
 30
0.0
 10
1328.950310951703
 20
-429.5476744585541
 30
0.0
 10
1327.041728052875
 20
-427.2404940120823
 30
0.0
 10
1326.830888209178
 20
-426.5452737431589
 30
0.0
 10
1327.401396021535
 20
-425.6223326626643
 30
0.0
 10
1327.174019719509
 20
-424.6339347679461
 30
0.0
 10
1326.817796846334
 20
-423.9442266517952
 30
0.0
 10
1326.234197671133
 20
-423.4877514999997
 30
0.0
 10
1325.386015162664
 20
-423.7116827065409
 30
0.0
 10
1324.222950926844
 20
-424.5519414953934
 30
0.0
 10
1324.238798366076
 20
-425.9385924282103
 30
0.0
 10
1324.34284024973
 20
-427.1991528662593
 30
0.0
 10
1322.668523843899
 20
-429.3630173405486
 30
0.0
 10
1318.814840034098
 20
-430.2663213767811
 30
0.0
 10
1317.164639296664
 20
-428.5885598754644
 30
0.0
 10
1317.078511909536
 20
-428.2919371541844
 30
0.0
 10
1316.913147326244
 20
-427.7097160171733
 30
0.0
 10
1317.081267985921
 20
-427.2814906483568
 30
0.0
 10
1317.096426406056
 20
-427.2298142160819
 30
0.0
 10
1317.112273845288
 20
-427.1736591596723
 30
0.0
 10
1317.119853055355
 20
-427.1099248931952
 30
0.0
 10
1317.205980442487
 20
-426.4598353751247
 30
0.0
 10
1316.992384522401
 20
-425.9726988735142
 30
0.0
 10
1316.397761041647
 20
-425.7615145202684
 30
0.0
 10
1315.267080703392
 20
-425.346380514292
 30
0.0
 10
1315.333915555802
 20
-424.8389179493185
 30
0.0
 10
1314.53327536503
 20
-424.1323288652899
 30
0.0
 10
1313.709897544055
 20
-423.3740633489903
 30
0.0
 10
1312.750782960961
 20
-423.7392434704267
 30
0.0
 10
1312.17889711041
 20
-424.4988870249205
 30
0.0
 10
1312.038337214612
 20
-426.532871399412
 30
0.0
 10
1310.601732397263
 20
-428.1999531047244
 30
0.0
 10
1309.021811607727
 20
-429.2951489594853
 30
0.0
 10
1308.012398630549
 20
-429.644137132145
 30
0.0
 10
1306.747359568365
 20
-429.5287264333891
 30
0.0
 10
1305.921225671002
 20
-428.9682093979389
 30
0.0
 10
1305.646996070376
 20
-428.7787291462502
 30
0.0
 10
1305.550533396789
 20
-428.5692673407432
 30
0.0
 10
1305.545021244013
 20
-428.421472744426
 30
0.0
 10
1306.862425757573
 20
-428.0507804702169
 30
0.0
 10
1308.043404489916
 20
-427.155055644052
 30
0.0
 10
1308.717954185928
 20
-425.9244675367207
 30
0.0
 10
1309.516527319409
 20
-423.7816181448915
 30
0.0
 10
1307.967612389241
 20
-421.4944192522379
 30
0.0
 10
1305.587051408933
 20
-421.826526457016
 30
0.0
 10
1303.391836565732
 20
-422.1338289742965
 30
0.0
 10
1302.309387564266
 20
-423.6834329235657
 30
0.0
 10
1302.413429447921
 20
-426.3537264341829
 30
0.0
 10
1301.206267989889
 20
-426.3034280400943
 30
0.0
 10
1300.124508007521
 20
-425.9017299065181
 30
0.0
 10
1299.002784917524
 20
-425.4504223979465
 30
0.0
 10
1298.040914258042
 20
-425.0618156272142
 30
0.0
 10
1297.868659483779
 20
-424.1588561005302
 30
0.0
 10
1296.467883659477
 20
-424.4203388478568
 30
0.0
 10
1295.366142123294
 20
-425.5854701409683
 30
0.0
 10
1296.138532531087
 20
-426.3509703577947
 30
0.0
 10
1296.860624544795
 20
-427.2711553619049
 30
0.0
 10
1297.584094596698
 20
-428.1889287991716
 30
0.0
 10
1297.551021680039
 20
-429.5655889550813
 30
0.0
 10
1296.405182921645
 20
-430.2160229826965
 30
0.0
 10
1294.762561394282
 20
-430.6053187725297
 30
0.0
 10
1293.38865731476
 20
-429.1673359169826
 30
0.0
 10
1292.389579624038
 20
-428.1014233738463
 30
0.0
 10
1292.402670986882
 20
-427.4658032568177
 30
0.0
 10
1292.421274502502
 20
-426.2321145635497
 30
0.0
 10
1292.257976976505
 20
-425.6884784959773
 30
0.0
 10
1291.932759962698
 20
-424.5974167557986
 30
0.0
 10
1291.227893426412
 20
-423.6606952933631
 30
0.0
 10
1289.933915562152
 20
-424.0930547767619
 30
0.0
 10
1289.125696161312
 20
-425.167924568156
 30
0.0
 10
1289.435065735888
 20
-426.4553567509939
 30
0.0
 10
1289.878105015291
 20
-427.5519306439527
 30
0.0
 10
1289.51636998934
 20
-428.6750317721404
 30
0.0
 10
1288.981691170029
 20
-429.7702276269013
 30
0.0
 10
1287.933004104319
 20
-430.3269550573177
 30
0.0
 10
1286.714129321637
 20
-430.6173766067242
 30
0.0
 10
1284.591950502723
 20
-430.3259215286759
 30
0.0
 10
1283.714140173082
 20
-428.1499992201882
 30
0.0
 10
1283.764438567167
 20
-427.8609557089758
 30
0.0
 10
1283.898108271994
 20
-427.0386114166505
 30
0.0
 10
1283.899486310188
 20
-426.2004196850854
 30
0.0
 10
1283.900864348382
 20
-425.6829663432009
 30
0.0
 10
1283.852633011589
 20
-425.1231383268516
 30
0.0
 10
1283.685890390107
 20
-424.666663175056
 30
0.0
 10
1283.140187265239
 20
-423.1835495686521
 30
0.0
 10
1280.916033619966
 20
-423.1990524983396
 30
0.0
 10
1280.917411658156
 20
-425.7498011956147
 30
0.0
 10
1280.917411658156
 20
-426.3599276060525
 30
0.0
 10
1281.008362178967
 20
-426.9717765642328
 30
0.0
 10
1281.150989132056
 20
-427.5629549495055
 30
0.0
 10
1280.266288611444
 20
-429.3802428179748
 30
0.0
 10
1278.445211137941
 20
-429.7450784298589
 30
0.0
 10
1277.166391693816
 20
-429.5004766504101
 30
0.0
 10
1275.288814654355
 20
-428.5423955959582
 30
0.0
 10
1274.682477848951
 20
-426.4997984827536
 30
0.0
 10
1274.417205496587
 20
-424.3969121985609
 30
0.0
 10
1275.760792735834
 20
-422.5448288656868
 30
0.0
 10
1276.893540131384
 20
-420.922188892138
 30
0.0
 10
1278.065561615466
 20
-418.6680629161352
 30
0.0
 10
1279.410526892908
 20
-416.1693351606834
 30
0.0
 10
1279.931425330278
 20
-415.1475198397622
 30
0.0
 10
1280.036156233029
 20
-412.0672599663965
 30
0.0
 10
1279.715073333808
 20
-408.2721427798491
 30
0.0
 10
1275.04696895129
 20
-409.3559698195048
 30
0.0
 10
1274.051336356053
 20
-411.3672165637937
 30
0.0
 10
1271.673531452137
 20
-415.0923983119943
 30
0.0
 10
1271.263565089389
 20
-420.0988110711594
 30
0.0
 10
1271.682488700395
 20
-424.3359340084682
 30
0.0
 10
1271.216022771692
 20
-425.2123662999157
 30
0.0
 10
1270.512534273608
 20
-425.8855379577336
 30
0.0
 10
1269.819381061976
 20
-426.5786911693658
 30
0.0
 10
1269.17997133991
 20
-427.1292174279088
 30
0.0
 10
1268.656316826152
 20
-427.2780455528754
 30
0.0
 10
1268.282868475551
 20
-428.1324292332174
 30
0.0
 10
1268.468903631754
 20
-428.4772832912909
 30
0.0
 10
1268.523336140421
 20
-428.5320603095025
 30
0.0
 10
1268.96499738163
 20
-428.7983661905162
 30
0.0
 10
1270.325121079207
 20
-429.215567253776
 30
0.0
 10
1271.134029499143
 20
-428.3866772800249
 30
0.0
 10
1272.000815523232
 20
-427.5557202489827
 30
0.0
 10
1272.000815523232
 20
-427.5557202489827
 30
0.0
 10
1272.378397988416
 20
-427.2043205094872
 30
0.0
 10
1272.378397988416
 20
-427.2043205094872
 30
0.0
 10
1273.274811833678
 20
-429.0808640203066
 30
0.0
 10
1274.643892779516
 20
-431.2343932081363
 30
0.0
 10
1276.85013192827
 20
-431.8479647140593
 30
0.0
 10
1278.128951372399
 20
-432.0625941627865
 30
0.0
 10
1279.677866302563
 20
-432.0543259336219
 30
0.0
 10
1280.836107404708
 20
-431.3308558817195
 30
0.0
 10
1280.836107404708
 20
-431.3308558817195
 30
0.0
 10
1282.542118689
 20
-430.23531551741
 30
0.0
 10
1282.542118689
 20
-430.23531551741
 30
0.0
 10
1283.783042082787
 20
-431.6987920795441
 30
0.0
 10
1285.39396873169
 20
-432.8749476782123
 30
0.0
 10
1287.520281665186
 20
-432.6747876305154
 30
0.0
 10
1288.922435527683
 20
-432.614153949975
 30
0.0
 10
1290.031756273933
 20
-431.6154207688049
 30
0.0
 10
1290.927481100098
 20
-430.6452818801586
 30
0.0
 10
1290.927481100098
 20
-430.6452818801586
 30
0.0
 10
1291.442178365598
 20
-430.0702954436665
 30
0.0
 10
1291.442178365598
 20
-430.0702954436665
 30
0.0
 10
1292.822283616985
 20
-431.5217141716023
 30
0.0
 10
1294.429765170403
 20
-432.8746031686637
 30
0.0
 10
1296.835130838204
 20
-432.4291523224171
 30
0.0
 10
1298.309631705891
 20
-432.2386385420866
 30
0.0
 10
1299.094424457431
 20
-431.4245624789221
 30
0.0
 10
1299.670444422565
 20
-430.1343742196922
 30
0.0
 10
1299.941917946803
 20
-429.5028882172497
 30
0.0
 10
1299.863369769739
 20
-428.8142136297483
 30
0.0
 10
1299.795156879131
 20
-428.15516686342
 30
0.0
 10
1300.797679665339
 20
-428.4135490248137
 30
0.0
 10
1301.837409482787
 20
-428.6274894544478
 30
0.0
 10
1302.873005185653
 20
-428.6667635429757
 30
0.0
 10
1303.227161001537
 20
-429.5824699229552
 30
0.0
 10
1303.853479360755
 20
-430.6459708992518
 30
0.0
 10
1304.776764950802
 20
-431.0714401916802
 30
0.0
 10
1306.775609351344
 20
-431.9923142148874
 30
0.0
 10
1306.88860848326
 20
-431.8407300135403
 30
0.0
 10
1308.768252580013
 20
-431.7411667540165
 30
0.0
 10
1311.167417075941
 20
-431.2957159077737
 30
0.0
 10
1314.272826146345
 20
-427.5801804269318
 30
0.0
 10
1314.272826146345
 20
-427.5801804269318
 30
0.0
 10
1314.272826146345
 20
-427.5801804269318
 30
0.0
 10
1312.929927926195
 20
-429.4219284733464
 30
0.0
 10
1314.272826146345
 20
-427.5801804269318
 30
0.0
  0
SPLINE
  5
3A2
330
39B
100
AcDbEntity
  8
Layer 1
370
     0
100
AcDbSpline
210
0.0
220
0.0
230
1.0
 70
    11
 71
     3
 72
    56
 73
    52
 74
     0
 42
0.0000000001
 43
0.0000000001
 12
1.0
 22
0.0
 32
0.0
 13
1.0
 23
0.0
 33
0.0
 40
0.0
 40
0.0
 40
0.0
 40
0.0
 40
1.0
 40
1.0
 40
1.0
 40
2.0
 40
2.0
 40
2.0
 40
3.0
 40
3.0
 40
3.0
 40
4.0
 40
4.0
 40
4.0
 40
5.0
 40
5.0
 40
5.0
 40
6.0
 40
6.0
 40
6.0
 40
7.0
 40
7.0
 40
7.0
 40
8.0
 40
8.0
 40
8.0
 40
9.0
 40
9.0
 40
9.0
 40
10.0
 40
10.0
 40
10.0
 40
11.0
 40
11.0
 40
11.0
 40
12.0
 40
12.0
 40
12.0
 40
13.0
 40
13.0
 40
13.0
 40
14.0
 40
14.0
 40
14.0
 40
15.0
 40
15.0
 40
15.0
 40
16.0
 40
16.0
 40
16.0
 40
17.0
 40
17.0
 40
17.0
 40
17.0
 10
1255.700690744321
 20
-414.2145879823565
 30
0.0
 10
1255.700690744321
 20
-414.2145879823565
 30
0.0
 10
1255.191505631601
 20
-413.7436434295229
 30
0.0
 10
1255.191505631601
 20
-413.7436434295229
 30
0.0
 10
1255.191505631601
 20
-413.7436434295229
 30
0.0
 10
1255.682087228701
 20
-413.5066208601338
 30
0.0
 10
1255.682087228701
 20
-413.5066208601338
 30
0.0
 10
1256.4530995983
 20
-413.2592630042929
 30
0.0
 10
1257.289568782119
 20
-413.1975957951108
 30
0.0
 10
1257.68162064834
 20
-414.0926316021748
 30
0.0
 10
1257.77739430283
 20
-414.8777688632671
 30
0.0
 10
1257.450110231731
 20
-415.3518140020336
 30
0.0
 10
1256.894071820412
 20
-415.8410175609391
 30
0.0
 10
1255.697245648836
 20
-415.949882578273
 30
0.0
 10
1254.89522741987
 20
-417.0526576431054
 30
0.0
 10
1254.155220909638
 20
-417.8791360500129
 30
0.0
 10
1253.301526248393
 20
-419.8914163229512
 30
0.0
 10
1254.004325727384
 20
-422.3091843344957
 30
0.0
 10
1254.422560319294
 20
-424.3359340084682
 30
0.0
 10
1254.422560319294
 20
-424.3359340084682
 30
0.0
 10
1254.678186404299
 20
-424.5846699025032
 30
0.0
 10
1254.678186404299
 20
-424.5846699025032
 30
0.0
 10
1255.139140180226
 20
-425.0411450542988
 30
0.0
 10
1255.513966569021
 20
-425.5269035177191
 30
0.0
 10
1255.480893652362
 20
-426.223846334389
 30
0.0
 10
1255.041988487542
 20
-427.403791538087
 30
0.0
 10
1252.700012576669
 20
-427.9777444459258
 30
0.0
 10
1252.450587663537
 20
-426.093966234595
 30
0.0
 10
1252.026840918851
 20
-425.346380514292
 30
0.0
 10
1251.856653201879
 20
-424.8037779753651
 30
0.0
 10
1251.747788184546
 20
-424.2501511308893
 30
0.0
 10
1251.747788184546
 20
-424.2501511308893
 30
0.0
 10
1251.671307064773
 20
-423.8133130233596
 30
0.0
 10
1251.671307064773
 20
-423.8133130233596
 30
0.0
 10
1251.52730207349
 20
-424.9047192730868
 30
0.0
 10
1251.70231292414
 20
-426.1756149975955
 30
0.0
 10
1251.884902984862
 20
-427.2480732221537
 30
0.0
 10
1252.261107411848
 20
-428.6681415811698
 30
0.0
 10
1253.240892567853
 20
-429.7526576399304
 30
0.0
 10
1254.645113487641
 20
-430.3228209427392
 30
0.0
 10
1257.863521689961
 20
-431.085909592722
 30
0.0
 10
1260.518312270895
 20
-428.8872496540317
 30
0.0
 10
1262.354548164533
 20
-426.5084112214667
 30
0.0
 10
1265.246361314852
 20
-422.3787752633016
 30
0.0
 10
1267.814335489557
 20
-417.2011412585196
 30
0.0
 10
1265.47787173146
 20
-412.1985181043844
 30
0.0
 10
1262.689411445699
 20
-408.7093253969234
 30
0.0
 10
1255.700690744321
 20
-414.2145879823565
 30
0.0
 10
1255.700690744321
 20
-414.2145879823565
 30
0.0
 10
1255.700690744321
 20
-414.2145879823565
 30
0.0
 10
1257.219288834223
 20
-410.329898313185
 30
0.0
 10
1255.700690744321
 20
-414.2145879823565
 30
0.0
  0
SPLINE
  5
3A3
330
39B
100
AcDbEntity
  8
Layer 1
370
     0
100
AcDbSpline
210
0.0
220
0.0
230
1.0
 70
    11
 71
     3
 72
    26
 73
    22
 74
     0
 42
0.0000000001
 43
0.0000000001
 12
1.0
 22
0.0
 32
0.0
 13
1.0
 23
0.0
 33
0.0
 40
0.0
 40
0.0
 40
0.0
 40
0.0
 40
1.0
 40
1.0
 40
1.0
 40
2.0
 40
2.0
 40
2.0
 40
3.0
 40
3.0
 40
3.0
 40
4.0
 40
4.0
 40
4.0
 40
5.0
 40
5.0
 40
5.0
 40
6.0
 40
6.0
 40
6.0
 40
7.0
 40
7.0
 40
7.0
 40
7.0
 10
1264.360282756045
 20
-428.2151115248633
 30
0.0
 10
1262.095476984042
 20
-431.290548264542
 30
0.0
 10
1258.40577971934
 20
-433.340035568721
 30
0.0
 10
1254.457011274146
 20
-432.7839971573978
 30
0.0
 10
1251.673374122064
 20
-432.042612608972
 30
0.0
 10
1249.871589183279
 20
-429.338212653051
 30
0.0
 10
1249.411324426449
 20
-426.6785989384381
 30
0.0
 10
1248.850462881451
 20
-423.2018085747278
 30
0.0
 10
1249.793041006215
 20
-420.0354213142347
 30
0.0
 10
1251.629276899853
 20
-417.4181822740903
 30
0.0
 10
1252.179803158396
 20
-413.6165194061172
 30
0.0
 10
1254.341945084939
 20
-409.9657517203979
 30
0.0
 10
1258.115013660388
 20
-408.2876457095289
 30
0.0
 10
1260.467324857713
 20
-407.429472424157
 30
0.0
 10
1265.734186835563
 20
-407.0515454494251
 30
0.0
 10
1267.518746296922
 20
-410.9090188642555
 30
0.0
 10
1270.758514091251
 20
-416.8838479643243
 30
0.0
 10
1264.360282756045
 20
-428.2151115248633
 30
0.0
 10
1264.360282756045
 20
-428.2151115248633
 30
0.0
 10
1264.360282756045
 20
-428.2151115248633
 30
0.0
 10
1267.509789048661
 20
-423.4439987873408
 30
0.0
 10
1264.360282756045
 20
-428.2151115248633
 30
0.0
  0
SPLINE
  5
3A4
330
39B
100
AcDbEntity
  8
Layer 1
370
     0
100
AcDbSpline
210
0.0
220
0.0
230
1.0
 70
    11
 71
     3
 72
    20
 73
    16
 74
     0
 42
0.0000000001
 43
0.0000000001
 12
1.0
 22
0.0
 32
0.0
 13
1.0
 23
0.0
 33
0.0
 40
0.0
 40
0.0
 40
0.0
 40
0.0
 40
1.0
 40
1.0
 40
1.0
 40
2.0
 40
2.0
 40
2.0
 40
3.0
 40
3.0
 40
3.0
 40
4.0
 40
4.0
 40
4.0
 40
5.0
 40
5.0
 40
5.0
 40
5.0
 10
1326.943198321997
 20
-421.1750589007553
 30
0.0
 10
1327.096160561542
 20
-420.7099710102466
 30
0.0
 10
1327.046551186554
 20
-420.0908873515472
 30
0.0
 10
1326.768187471346
 20
-419.6626619827306
 30
0.0
 10
1326.165984780524
 20
-418.9047409759718
 30
0.0
 10
1325.005676621092
 20
-418.3662725516311
 30
0.0
 10
1324.285651664675
 20
-419.3594935800248
 30
0.0
 10
1323.923227619627
 20
-420.2459166483796
 30
0.0
 10
1324.194701143864
 20
-421.128205602152
 30
0.0
 10
1324.906457871117
 20
-421.736609464851
 30
0.0
 10
1325.663000839678
 20
-421.9178214873751
 30
0.0
 10
1326.943198321997
 20
-421.1750589007553
 30
0.0
 10
1326.943198321997
 20
-421.1750589007553
 30
0.0
 10
1326.943198321997
 20
-421.1750589007553
 30
0.0
 10
1326.524963730087
 20
-422.0990335098993
 30
0.0
 10
1326.943198321997
 20
-421.1750589007553
 30
0.0
  0
SPLINE
  5
3A5
330
39B
100
AcDbEntity
  8
Layer 1
370
     0
100
AcDbSpline
210
0.0
220
0.0
230
1.0
 70
    11
 71
     3
 72
    20
 73
    16
 74
     0
 42
0.0000000001
 43
0.0000000001
 12
1.0
 22
0.0
 32
0.0
 13
1.0
 23
0.0
 33
0.0
 40
0.0
 40
0.0
 40
0.0
 40
0.0
 40
1.0
 40
1.0
 40
1.0
 40
2.0
 40
2.0
 40
2.0
 40
3.0
 40
3.0
 40
3.0
 40
4.0
 40
4.0
 40
4.0
 40
5.0
 40
5.0
 40
5.0
 40
5.0
 10
1283.504678367579
 20
-419.7553350512839
 30
0.0
 10
1283.115382577749
 20
-420.3134405198943
 30
0.0
 10
1282.154200937361
 20
-420.3148185580884
 30
0.0
 10
1281.657418168388
 20
-420.1119024340072
 30
0.0
 10
1280.938771250168
 20
-419.8187248082124
 30
0.0
 10
1280.255953324988
 20
-418.8706345306678
 30
0.0
 10
1280.782363915134
 20
-417.9538946220429
 30
0.0
 10
1281.370097204918
 20
-416.9307012629237
 30
0.0
 10
1282.589661006696
 20
-417.21182105452
 30
0.0
 10
1283.2194244614
 20
-417.7247957722776
 30
0.0
 10
1283.614232404009
 20
-418.045878671499
 30
0.0
 10
1283.504678367579
 20
-419.7553350512839
 30
0.0
 10
1283.504678367579
 20
-419.7553350512839
 30
0.0
 10
1283.504678367579
 20
-419.7553350512839
 30
0.0
 10
1284.030399938628
 20
-419.0036152163985
 30
0.0
 10
1283.504678367579
 20
-419.7553350512839
 30
0.0
  0
HATCH
  5
3A6
330
39B
100
AcDbEntity
  8
Layer 1
 62
   152
420
    26316
100
AcDbHatch
 10
0.0
 20
0.0
 30
0.0
210
0.0
220
0.0
230
1.0
  2
SOLID
 70
     1
 71
     0
 91
        7
 92
        1
 93
        1
 72
     4
 94
        3
 73
     0
 74
     1
 95
       17
 96
       13
 40
0.0
 40
0.0
 40
0.0
 40
0.0
 40
1.0
 40
1.0
 40
1.0
 40
2.0
 40
2.0
 40
2.0
 40
3.0
 40
3.0
 40
3.0
 40
4.0
 40
4.0
 40
4.0
 40
4.0
 10
1277.243561832686
 20
-412.7418096624084
 10
1277.027898855313
 20
-415.674274939453
 10
1275.824182492763
 20
-417.6148972262981
 10
1274.388955713608
 20
-420.0367993524288
 10
1274.406870210131
 20
-416.9951245484978
 10
1274.820281668361
 20
-414.2734991151505
 10
1276.68890145956
 20
-412.3004929307517
 10
1276.928680105334
 20
-411.9735533692015
 10
1277.243561832686
 20
-412.7418096624084
 10
1277.243561832686
 20
-412.7418096624084
 10
1277.243561832686
 20
-412.7418096624084
 10
1277.304195513226
 20
-412.0303974447043
 10
1277.243561832686
 20
-412.7418096624084
 97
        0
 97
        0
 92
        1
 93
        1
 72
     4
 94
        3
 73
     0
 74
     1
 95
       17
 96
       13
 40
0.0
 40
0.0
 40
0.0
 40
0.0
 40
1.0
 40
1.0
 40
1.0
 40
2.0
 40
2.0
 40
2.0
 40
3.0
 40
3.0
 40
3.0
 40
4.0
 40
4.0
 40
4.0
 40
4.0
 10
1306.475886044127
 20
-424.995325284345
 10
1306.466239776769
 20
-425.2416496115404
 10
1305.879195506086
 20
-425.8903610914168
 10
1304.822929230305
 20
-426.0732956616797
 10
1304.630003883131
 20
-424.8316832487995
 10
1305.229450497564
 20
-424.1064906491505
 10
1305.816494768255
 20
-424.1064906491505
 10
1306.302253231671
 20
-424.1064906491505
 10
1306.475886044127
 20
-424.995325284345
 10
1306.475886044127
 20
-424.995325284345
 10
1306.475886044127
 20
-424.995325284345
 10
1306.502757788913
 20
-424.2887362003241
 10
1306.475886044127
 20
-424.995325284345
 97
        0
 97
        0
 92
        1
 93
        1
 72
     4
 94
        3
 73
     0
 74
     1
 95
      203
 96
      199
 40
0.0
 40
0.0
 40
0.0
 40
0.0
 40
1.0
 40
1.0
 40
1.0
 40
2.0
 40
2.0
 40
2.0
 40
3.0
 40
3.0
 40
3.0
 40
4.0
 40
4.0
 40
4.0
 40
5.0
 40
5.0
 40
5.0
 40
6.0
 40
6.0
 40
6.0
 40
7.0
 40
7.0
 40
7.0
 40
8.0
 40
8.0
 40
8.0
 40
9.0
 40
9.0
 40
9.0
 40
10.0
 40
10.0
 40
10.0
 40
11.0
 40
11.0
 40
11.0
 40
12.0
 40
12.0
 40
12.0
 40
13.0
 40
13.0
 40
13.0
 40
14.0
 40
14.0
 40
14.0
 40
15.0
 40
15.0
 40
15.0
 40
16.0
 40
16.0
 40
16.0
 40
17.0
 40
17.0
 40
17.0
 40
18.0
 40
18.0
 40
18.0
 40
19.0
 40
19.0
 40
19.0
 40
20.0
 40
20.0
 40
20.0
 40
21.0
 40
21.0
 40
21.0
 40
22.0
 40
22.0
 40
22.0
 40
23.0
 40
23.0
 40
23.0
 40
24.0
 40
24.0
 40
24.0
 40
25.0
 40
25.0
 40
25.0
 40
26.0
 40
26.0
 40
26.0
 40
27.0
 40
27.0
 40
27.0
 40
28.0
 40
28.0
 40
28.0
 40
29.0
 40
29.0
 40
29.0
 40
30.0
 40
30.0
 40
30.0
 40
31.0
 40
31.0
 40
31.0
 40
32.0
 40
32.0
 40
32.0
 40
33.0
 40
33.0
 40
33.0
 40
34.0
 40
34.0
 40
34.0
 40
35.0
 40
35.0
 40
35.0
 40
36.0
 40
36.0
 40
36.0
 40
37.0
 40
37.0
 40
37.0
 40
38.0
 40
38.0
 40
38.0
 40
39.0
 40
39.0
 40
39.0
 40
40.0
 40
40.0
 40
40.0
 40
41.0
 40
41.0
 40
41.0
 40
42.0
 40
42.0
 40
42.0
 40
43.0
 40
43.0
 40
43.0
 40
44.0
 40
44.0
 40
44.0
 40
45.0
 40
45.0
 40
45.0
 40
46.0
 40
46.0
 40
46.0
 40
47.0
 40
47.0
 40
47.0
 40
48.0
 40
48.0
 40
48.0
 40
49.0
 40
49.0
 40
49.0
 40
50.0
 40
50.0
 40
50.0
 40
51.0
 40
51.0
 40
51.0
 40
52.0
 40
52.0
 40
52.0
 40
53.0
 40
53.0
 40
53.0
 40
54.0
 40
54.0
 40
54.0
 40
55.0
 40
55.0
 40
55.0
 40
56.0
 40
56.0
 40
56.0
 40
57.0
 40
57.0
 40
57.0
 40
58.0
 40
58.0
 40
58.0
 40
59.0
 40
59.0
 40
59.0
 40
60.0
 40
60.0
 40
60.0
 40
61.0
 40
61.0
 40
61.0
 40
62.0
 40
62.0
 40
62.0
 40
63.0
 40
63.0
 40
63.0
 40
64.0
 40
64.0
 40
64.0
 40
65.0
 40
65.0
 40
65.0
 40
66.0
 40
66.0
 40
66.0
 40
66.0
 10
1314.272826146345
 20
-427.5801804269318
 10
1314.272826146345
 20
-427.5801804269318
 10
1314.501580486565
 20
-428.5351608954392
 10
1314.501580486565
 20
-428.5351608954392
 10
1314.627670981326
 20
-429.0305656262181
 10
1314.773054010803
 20
-429.4908303830475
 10
1315.016277752062
 20
-429.9438604393617
 10
1316.559680529454
 20
-432.009195182769
 10
1320.499491726385
 20
-431.7725171229323
 10
1322.518317680742
 20
-431.1465432732586
 10
1323.636595675254
 20
-430.7989331387969
 10
1324.710776447555
 20
-430.2246357214096
 10
1325.718122367442
 20
-429.6258781260731
 10
1328.286096542147
 20
-431.3139749138417
 10
1331.529309431961
 20
-431.8362513894094
 10
1334.778723493649
 20
-431.8489982427049
 10
1338.09979554143
 20
-431.8614005864479
 10
1341.490458518013
 20
-431.3387796013394
 10
1344.27754076558
 20
-430.9329473531731
 10
1347.241700921089
 20
-430.7427780823912
 10
1349.60503642397
 20
-429.3451028440214
 10
1352.723536857219
 20
-430.0158629349996
 10
1353.396019495939
 20
-429.7912427093651
 10
1353.925875181571
 20
-429.4481111990304
 10
1353.876265806583
 20
-428.6119865247603
 10
1353.574475442075
 20
-427.8719800145286
 10
1353.156240850166
 20
-427.3548711821965
 10
1352.284631692398
 20
-427.2856247629391
 10
1350.814264939293
 20
-427.9181442940348
 10
1349.1544179345
 20
-427.7307310996334
 10
1347.619283386272
 20
-428.1076245457197
 10
1343.717368239678
 20
-429.0171297538257
 10
1339.563272103564
 20
-429.3740416460975
 10
1335.148037729668
 20
-429.6131312727777
 10
1332.410564857088
 20
-429.5900491330265
 10
1328.950310951703
 20
-429.5476744585541
 10
1327.041728052875
 20
-427.2404940120823
 10
1326.830888209178
 20
-426.5452737431589
 10
1327.401396021535
 20
-425.6223326626643
 10
1327.174019719509
 20
-424.6339347679461
 10
1326.817796846334
 20
-423.9442266517952
 10
1326.234197671133
 20
-423.4877514999997
 10
1325.386015162664
 20
-423.7116827065409
 10
1324.222950926844
 20
-424.5519414953934
 10
1324.238798366076
 20
-425.9385924282103
 10
1324.34284024973
 20
-427.1991528662593
 10
1322.668523843899
 20
-429.3630173405486
 10
1318.814840034098
 20
-430.2663213767811
 10
1317.164639296664
 20
-428.5885598754644
 10
1317.078511909536
 20
-428.2919371541844
 10
1316.913147326244
 20
-427.7097160171733
 10
1317.081267985921
 20
-427.2814906483568
 10
1317.096426406056
 20
-427.2298142160819
 10
1317.112273845288
 20
-427.1736591596723
 10
1317.119853055355
 20
-427.1099248931952
 10
1317.205980442487
 20
-426.4598353751247
 10
1316.992384522401
 20
-425.9726988735142
 10
1316.397761041647
 20
-425.7615145202684
 10
1315.267080703392
 20
-425.346380514292
 10
1315.333915555802
 20
-424.8389179493185
 10
1314.53327536503
 20
-424.1323288652899
 10
1313.709897544055
 20
-423.3740633489903
 10
1312.750782960961
 20
-423.7392434704267
 10
1312.17889711041
 20
-424.4988870249205
 10
1312.038337214612
 20
-426.532871399412
 10
1310.601732397263
 20
-428.1999531047244
 10
1309.021811607727
 20
-429.2951489594853
 10
1308.012398630549
 20
-429.644137132145
 10
1306.747359568365
 20
-429.5287264333891
 10
1305.921225671002
 20
-428.9682093979389
 10
1305.646996070376
 20
-428.7787291462502
 10
1305.550533396789
 20
-428.5692673407432
 10
1305.545021244013
 20
-428.421472744426
 10
1306.862425757573
 20
-428.0507804702169
 10
1308.043404489916
 20
-427.155055644052
 10
1308.717954185928
 20
-425.9244675367207
 10
1309.516527319409
 20
-423.7816181448915
 10
1307.967612389241
 20
-421.4944192522379
 10
1305.587051408933
 20
-421.826526457016
 10
1303.391836565732
 20
-422.1338289742965
 10
1302.309387564266
 20
-423.6834329235657
 10
1302.413429447921
 20
-426.3537264341829
 10
1301.206267989889
 20
-426.3034280400943
 10
1300.124508007521
 20
-425.9017299065181
 10
1299.002784917524
 20
-425.4504223979465
 10
1298.040914258042
 20
-425.0618156272142
 10
1297.868659483779
 20
-424.1588561005302
 10
1296.467883659477
 20
-424.4203388478568
 10
1295.366142123294
 20
-425.5854701409683
 10
1296.138532531087
 20
-426.3509703577947
 10
1296.860624544795
 20
-427.2711553619049
 10
1297.584094596698
 20
-428.1889287991716
 10
1297.551021680039
 20
-429.5655889550813
 10
1296.405182921645
 20
-430.2160229826965
 10
1294.762561394282
 20
-430.6053187725297
 10
1293.38865731476
 20
-429.1673359169826
 10
1292.389579624038
 20
-428.1014233738463
 10
1292.402670986882
 20
-427.4658032568177
 10
1292.421274502502
 20
-426.2321145635497
 10
1292.257976976505
 20
-425.6884784959773
 10
1291.932759962698
 20
-424.5974167557986
 10
1291.227893426412
 20
-423.6606952933631
 10
1289.933915562152
 20
-424.0930547767619
 10
1289.125696161312
 20
-425.167924568156
 10
1289.435065735888
 20
-426.4553567509939
 10
1289.878105015291
 20
-427.5519306439527
 10
1289.51636998934
 20
-428.6750317721404
 10
1288.981691170029
 20
-429.7702276269013
 10
1287.933004104319
 20
-430.3269550573177
 10
1286.714129321637
 20
-430.6173766067242
 10
1284.591950502723
 20
-430.3259215286759
 10
1283.714140173082
 20
-428.1499992201882
 10
1283.764438567167
 20
-427.8609557089758
 10
1283.898108271994
 20
-427.0386114166505
 10
1283.899486310188
 20
-426.2004196850854
 10
1283.900864348382
 20
-425.6829663432009
 10
1283.852633011589
 20
-425.1231383268516
 10
1283.685890390107
 20
-424.666663175056
 10
1283.140187265239
 20
-423.1835495686521
 10
1280.916033619966
 20
-423.1990524983396
 10
1280.917411658156
 20
-425.7498011956147
 10
1280.917411658156
 20
-426.3599276060525
 10
1281.008362178967
 20
-426.9717765642328
 10
1281.150989132056
 20
-427.5629549495055
 10
1280.266288611444
 20
-429.3802428179748
 10
1278.445211137941
 20
-429.7450784298589
 10
1277.166391693816
 20
-429.5004766504101
 10
1275.288814654355
 20
-428.5423955959582
 10
1274.682477848951
 20
-426.4997984827536
 10
1274.417205496587
 20
-424.3969121985609
 10
1275.760792735834
 20
-422.5448288656868
 10
1276.893540131384
 20
-420.922188892138
 10
1278.065561615466
 20
-418.6680629161352
 10
1279.410526892908
 20
-416.1693351606834
 10
1279.931425330278
 20
-415.1475198397622
 10
1280.036156233029
 20
-412.0672599663965
 10
1279.715073333808
 20
-408.2721427798491
 10
1275.04696895129
 20
-409.3559698195048
 10
1274.051336356053
 20
-411.3672165637937
 10
1271.673531452137
 20
-415.0923983119943
 10
1271.263565089389
 20
-420.0988110711594
 10
1271.682488700395
 20
-424.3359340084682
 10
1271.216022771692
 20
-425.2123662999157
 10
1270.512534273608
 20
-425.8855379577336
 10
1269.819381061976
 20
-426.5786911693658
 10
1269.17997133991
 20
-427.1292174279088
 10
1268.656316826152
 20
-427.2780455528754
 10
1268.282868475551
 20
-428.1324292332174
 10
1268.468903631754
 20
-428.4772832912909
 10
1268.523336140421
 20
-428.5320603095025
 10
1268.96499738163
 20
-428.7983661905162
 10
1270.325121079207
 20
-429.215567253776
 10
1271.134029499143
 20
-428.3866772800249
 10
1272.000815523232
 20
-427.5557202489827
 10
1272.000815523232
 20
-427.5557202489827
 10
1272.378397988416
 20
-427.2043205094872
 10
1272.378397988416
 20
-427.2043205094872
 10
1273.274811833678
 20
-429.0808640203066
 10
1274.643892779516
 20
-431.2343932081363
 10
1276.85013192827
 20
-431.8479647140593
 10
1278.128951372399
 20
-432.0625941627865
 10
1279.677866302563
 20
-432.0543259336219
 10
1280.836107404708
 20
-431.3308558817195
 10
1280.836107404708
 20
-431.3308558817195
 10
1282.542118689
 20
-430.23531551741
 10
1282.542118689
 20
-430.23531551741
 10
1283.783042082787
 20
-431.6987920795441
 10
1285.39396873169
 20
-432.8749476782123
 10
1287.520281665186
 20
-432.6747876305154
 10
1288.922435527683
 20
-432.614153949975
 10
1290.031756273933
 20
-431.6154207688049
 10
1290.927481100098
 20
-430.6452818801586
 10
1290.927481100098
 20
-430.6452818801586
 10
1291.442178365598
 20
-430.0702954436665
 10
1291.442178365598
 20
-430.0702954436665
 10
1292.822283616985
 20
-431.5217141716023
 10
1294.429765170403
 20
-432.8746031686637
 10
1296.835130838204
 20
-432.4291523224171
 10
1298.309631705891
 20
-432.2386385420866
 10
1299.094424457431
 20
-431.4245624789221
 10
1299.670444422565
 20
-430.1343742196922
 10
1299.941917946803
 20
-429.5028882172497
 10
1299.863369769739
 20
-428.8142136297483
 10
1299.795156879131
 20
-428.15516686342
 10
1300.797679665339
 20
-428.4135490248137
 10
1301.837409482787
 20
-428.6274894544478
 10
1302.873005185653
 20
-428.6667635429757
 10
1303.227161001537
 20
-429.5824699229552
 10
1303.853479360755
 20
-430.6459708992518
 10
1304.776764950802
 20
-431.0714401916802
 10
1306.775609351344
 20
-431.9923142148874
 10
1306.88860848326
 20
-431.8407300135403
 10
1308.768252580013
 20
-431.7411667540165
 10
1311.167417075941
 20
-431.2957159077737
 10
1314.272826146345
 20
-427.5801804269318
 10
1314.272826146345
 20
-427.5801804269318
 10
1314.272826146345
 20
-427.5801804269318
 10
1312.929927926195
 20
-429.4219284733464
 10
1314.272826146345
 20
-427.5801804269318
 97
        0
 97
        0
 92
        1
 93
        1
 72
     4
 94
        3
 73
     0
 74
     1
 95
       56
 96
       52
 40
0.0
 40
0.0
 40
0.0
 40
0.0
 40
1.0
 40
1.0
 40
1.0
 40
2.0
 40
2.0
 40
2.0
 40
3.0
 40
3.0
 40
3.0
 40
4.0
 40
4.0
 40
4.0
 40
5.0
 40
5.0
 40
5.0
 40
6.0
 40
6.0
 40
6.0
 40
7.0
 40
7.0
 40
7.0
 40
8.0
 40
8.0
 40
8.0
 40
9.0
 40
9.0
 40
9.0
 40
10.0
 40
10.0
 40
10.0
 40
11.0
 40
11.0
 40
11.0
 40
12.0
 40
12.0
 40
12.0
 40
13.0
 40
13.0
 40
13.0
 40
14.0
 40
14.0
 40
14.0
 40
15.0
 40
15.0
 40
15.0
 40
16.0
 40
16.0
 40
16.0
 40
17.0
 40
17.0
 40
17.0
 40
17.0
 10
1255.700690744321
 20
-414.2145879823565
 10
1255.700690744321
 20
-414.2145879823565
 10
1255.191505631601
 20
-413.7436434295229
 10
1255.191505631601
 20
-413.7436434295229
 10
1255.191505631601
 20
-413.7436434295229
 10
1255.682087228701
 20
-413.5066208601338
 10
1255.682087228701
 20
-413.5066208601338
 10
1256.4530995983
 20
-413.2592630042929
 10
1257.289568782119
 20
-413.1975957951108
 10
1257.68162064834
 20
-414.0926316021748
 10
1257.77739430283
 20
-414.8777688632671
 10
1257.450110231731
 20
-415.3518140020336
 10
1256.894071820412
 20
-415.8410175609391
 10
1255.697245648836
 20
-415.949882578273
 10
1254.89522741987
 20
-417.0526576431054
 10
1254.155220909638
 20
-417.8791360500129
 10
1253.301526248393
 20
-419.8914163229512
 10
1254.004325727384
 20
-422.3091843344957
 10
1254.422560319294
 20
-424.3359340084682
 10
1254.422560319294
 20
-424.3359340084682
 10
1254.678186404299
 20
-424.5846699025032
 10
1254.678186404299
 20
-424.5846699025032
 10
1255.139140180226
 20
-425.0411450542988
 10
1255.513966569021
 20
-425.5269035177191
 10
1255.480893652362
 20
-426.223846334389
 10
1255.041988487542
 20
-427.403791538087
 10
1252.700012576669
 20
-427.9777444459258
 10
1252.450587663537
 20
-426.093966234595
 10
1252.026840918851
 20
-425.346380514292
 10
1251.856653201879
 20
-424.8037779753651
 10
1251.747788184546
 20
-424.2501511308893
 10
1251.747788184546
 20
-424.2501511308893
 10
1251.671307064773
 20
-423.8133130233596
 10
1251.671307064773
 20
-423.8133130233596
 10
1251.52730207349
 20
-424.9047192730868
 10
1251.70231292414
 20
-426.1756149975955
 10
1251.884902984862
 20
-427.2480732221537
 10
1252.261107411848
 20
-428.6681415811698
 10
1253.240892567853
 20
-429.7526576399304
 10
1254.645113487641
 20
-430.3228209427392
 10
1257.863521689961
 20
-431.085909592722
 10
1260.518312270895
 20
-428.8872496540317
 10
1262.354548164533
 20
-426.5084112214667
 10
1265.246361314852
 20
-422.3787752633016
 10
1267.814335489557
 20
-417.2011412585196
 10
1265.47787173146
 20
-412.1985181043844
 10
1262.689411445699
 20
-408.7093253969234
 10
1255.700690744321
 20
-414.2145879823565
 10
1255.700690744321
 20
-414.2145879823565
 10
1255.700690744321
 20
-414.2145879823565
 10
1257.219288834223
 20
-410.329898313185
 10
1255.700690744321
 20
-414.2145879823565
 97
        0
 97
        0
 92
        1
 93
        1
 72
     4
 94
        3
 73
     0
 74
     1
 95
       26
 96
       22
 40
0.0
 40
0.0
 40
0.0
 40
0.0
 40
1.0
 40
1.0
 40
1.0
 40
2.0
 40
2.0
 40
2.0
 40
3.0
 40
3.0
 40
3.0
 40
4.0
 40
4.0
 40
4.0
 40
5.0
 40
5.0
 40
5.0
 40
6.0
 40
6.0
 40
6.0
 40
7.0
 40
7.0
 40
7.0
 40
7.0
 10
1264.360282756045
 20
-428.2151115248633
 10
1262.095476984042
 20
-431.290548264542
 10
1258.40577971934
 20
-433.340035568721
 10
1254.457011274146
 20
-432.7839971573978
 10
1251.673374122064
 20
-432.042612608972
 10
1249.871589183279
 20
-429.338212653051
 10
1249.411324426449
 20
-426.6785989384381
 10
1248.850462881451
 20
-423.2018085747278
 10
1249.793041006215
 20
-420.0354213142347
 10
1251.629276899853
 20
-417.4181822740903
 10
1252.179803158396
 20
-413.6165194061172
 10
1254.341945084939
 20
-409.9657517203979
 10
1258.115013660388
 20
-408.2876457095289
 10
1260.467324857713
 20
-407.429472424157
 10
1265.734186835563
 20
-407.0515454494251
 10
1267.518746296922
 20
-410.9090188642555
 10
1270.758514091251
 20
-416.8838479643243
 10
1264.360282756045
 20
-428.2151115248633
 10
1264.360282756045
 20
-428.2151115248633
 10
1264.360282756045
 20
-428.2151115248633
 10
1267.509789048661
 20
-423.4439987873408
 10
1264.360282756045
 20
-428.2151115248633
 97
        0
 97
        0
 92
        1
 93
        1
 72
     4
 94
        3
 73
     0
 74
     1
 95
       20
 96
       16
 40
0.0
 40
0.0
 40
0.0
 40
0.0
 40
1.0
 40
1.0
 40
1.0
 40
2.0
 40
2.0
 40
2.0
 40
3.0
 40
3.0
 40
3.0
 40
4.0
 40
4.0
 40
4.0
 40
5.0
 40
5.0
 40
5.0
 40
5.0
 10
1326.943198321997
 20
-421.1750589007553
 10
1327.096160561542
 20
-420.7099710102466
 10
1327.046551186554
 20
-420.0908873515472
 10
1326.768187471346
 20
-419.6626619827306
 10
1326.165984780524
 20
-418.9047409759718
 10
1325.005676621092
 20
-418.3662725516311
 10
1324.285651664675
 20
-419.3594935800248
 10
1323.923227619627
 20
-420.2459166483796
 10
1324.194701143864
 20
-421.128205602152
 10
1324.906457871117
 20
-421.736609464851
 10
1325.663000839678
 20
-421.9178214873751
 10
1326.943198321997
 20
-421.1750589007553
 10
1326.943198321997
 20
-421.1750589007553
 10
1326.943198321997
 20
-421.1750589007553
 10
1326.524963730087
 20
-422.0990335098993
 10
1326.943198321997
 20
-421.1750589007553
 97
        0
 97
        0
 92
        1
 93
        1
 72
     4
 94
        3
 73
     0
 74
     1
 95
       20
 96
       16
 40
0.0
 40
0.0
 40
0.0
 40
0.0
 40
1.0
 40
1.0
 40
1.0
 40
2.0
 40
2.0
 40
2.0
 40
3.0
 40
3.0
 40
3.0
 40
4.0
 40
4.0
 40
4.0
 40
5.0
 40
5.0
 40
5.0
 40
5.0
 10
1283.504678367579
 20
-419.7553350512839
 10
1283.115382577749
 20
-420.3134405198943
 10
1282.154200937361
 20
-420.3148185580884
 10
1281.657418168388
 20
-420.1119024340072
 10
1280.938771250168
 20
-419.8187248082124
 10
1280.255953324988
 20
-418.8706345306678
 10
1280.782363915134
 20
-417.9538946220429
 10
1281.370097204918
 20
-416.9307012629237
 10
1282.589661006696
 20
-417.21182105452
 10
1283.2194244614
 20
-417.7247957722776
 10
1283.614232404009
 20
-418.045878671499
 10
1283.504678367579
 20
-419.7553350512839
 10
1283.504678367579
 20
-419.7553350512839
 10
1283.504678367579
 20
-419.7553350512839
 10
1284.030399938628
 20
-419.0036152163985
 10
1283.504678367579
 20
-419.7553350512839
 97
        0
 97
        0
 75
     2
 76
     1
 98
        0
  0
ENDBLK
  5
39E
330
39B
100
AcDbEntity
  8
0
100
AcDbBlockEnd
  0
BLOCK
  5
3A9
330
3A7
100
AcDbEntity
  8
0
100
AcDbBlockBegin
  2
block 43
 70
     0
 10
0.0
 20
0.0
 30
0.0
  3
block 43
  1

  0
SPLINE
  5
3AB
330
3A7
100
AcDbEntity
  8
Layer 1
370
     0
100
AcDbSpline
210
0.0
220
0.0
230
1.0
 70
    11
 71
     3
 72
    20
 73
    16
 74
     0
 42
0.0000000001
 43
0.0000000001
 12
1.0
 22
0.0
 32
0.0
 13
1.0
 23
0.0
 33
0.0
 40
0.0
 40
0.0
 40
0.0
 40
0.0
 40
1.0
 40
1.0
 40
1.0
 40
2.0
 40
2.0
 40
2.0
 40
3.0
 40
3.0
 40
3.0
 40
4.0
 40
4.0
 40
4.0
 40
5.0
 40
5.0
 40
5.0
 40
5.0
 10
1351.307602612781
 20
-424.2081209659654
 30
0.0
 10
1351.307602612781
 20
-424.2081209659654
 30
0.0
 10
1351.603191805415
 20
-424.2081209659654
 30
0.0
 10
1351.603191805415
 20
-424.2081209659654
 30
0.0
 10
1351.761666197737
 20
-424.2081209659654
 30
0.0
 10
1351.91738451367
 20
-424.257730340953
 30
0.0
 10
1351.91738451367
 20
-424.4310186438611
 30
0.0
 10
1351.91738451367
 20
-424.6301451629085
 30
0.0
 10
1351.794050095298
 20
-424.6697637609889
 30
0.0
 10
1351.603191805415
 20
-424.6697637609889
 30
0.0
 10
1351.603191805415
 20
-424.6697637609889
 30
0.0
 10
1351.307602612781
 20
-424.6697637609889
 30
0.0
 10
1351.307602612781
 20
-424.6697637609889
 30
0.0
 10
1351.307602612781
 20
-424.6697637609889
 30
0.0
 10
1351.307602612781
 20
-424.2081209659654
 30
0.0
 10
1351.307602612781
 20
-424.2081209659654
 30
0.0
  0
ENDBLK
  5
3AA
330
3A7
100
AcDbEntity
  8
0
100
AcDbBlockEnd
  0
BLOCK
  5
3AE
330
3AC
100
AcDbEntity
  8
0
100
AcDbBlockBegin
  2
block 44
 70
     0
 10
0.0
 20
0.0
 30
0.0
  3
block 44
  1

  0
SPLINE
  5
3B0
330
3AC
100
AcDbEntity
  8
Layer 1
370
     0
100
AcDbSpline
210
0.0
220
0.0
230
1.0
 70
    11
 71
     3
 72
    35
 73
    31
 74
     0
 42
0.0000000001
 43
0.0000000001
 12
1.0
 22
0.0
 32
0.0
 13
1.0
 23
0.0
 33
0.0
 40
0.0
 40
0.0
 40
0.0
 40
0.0
 40
1.0
 40
1.0
 40
1.0
 40
2.0
 40
2.0
 40
2.0
 40
3.0
 40
3.0
 40
3.0
 40
4.0
 40
4.0
 40
4.0
 40
5.0
 40
5.0
 40
5.0
 40
6.0
 40
6.0
 40
6.0
 40
7.0
 40
7.0
 40
7.0
 40
8.0
 40
8.0
 40
8.0
 40
9.0
 40
9.0
 40
9.0
 40
10.0
 40
10.0
 40
10.0
 40
10.0
 10
1351.057488680552
 20
-425.5396503710145
 30
0.0
 10
1351.057488680552
 20
-425.5396503710145
 30
0.0
 10
1351.307602612781
 20
-425.5396503710145
 30
0.0
 10
1351.307602612781
 20
-425.5396503710145
 30
0.0
 10
1351.307602612781
 20
-425.5396503710145
 30
0.0
 10
1351.307602612781
 20
-424.864756165454
 30
0.0
 10
1351.307602612781
 20
-424.864756165454
 30
0.0
 10
1351.307602612781
 20
-424.864756165454
 30
0.0
 10
1351.51568638009
 20
-424.864756165454
 30
0.0
 10
1351.51568638009
 20
-424.864756165454
 30
0.0
 10
1351.51568638009
 20
-424.864756165454
 30
0.0
 10
1351.942189201164
 20
-425.5396503710145
 30
0.0
 10
1351.942189201164
 20
-425.5396503710145
 30
0.0
 10
1351.942189201164
 20
-425.5396503710145
 30
0.0
 10
1352.206083515334
 20
-425.5396503710145
 30
0.0
 10
1352.206083515334
 20
-425.5396503710145
 30
0.0
 10
1352.206083515334
 20
-425.5396503710145
 30
0.0
 10
1351.772690503289
 20
-424.864756165454
 30
0.0
 10
1351.772690503289
 20
-424.864756165454
 30
0.0
 10
1352.011091110869
 20
-424.864756165454
 30
0.0
 10
1352.166809426802
 20
-424.6873337479636
 30
0.0
 10
1352.166809426802
 20
-424.4423874589624
 30
0.0
 10
1352.166809426802
 20
-424.154032966847
 30
0.0
 10
1351.992487595248
 20
-424.0131285615003
 30
0.0
 10
1351.642465893947
 20
-424.0131285615003
 30
0.0
 10
1351.642465893947
 20
-424.0131285615003
 30
0.0
 10
1351.057488680552
 20
-424.0131285615003
 30
0.0
 10
1351.057488680552
 20
-424.0131285615003
 30
0.0
 10
1351.057488680552
 20
-424.0131285615003
 30
0.0
 10
1351.057488680552
 20
-425.5396503710145
 30
0.0
 10
1351.057488680552
 20
-425.5396503710145
 30
0.0
  0
ENDBLK
  5
3AF
330
3AC
100
AcDbEntity
  8
0
100
AcDbBlockEnd
  0
BLOCK
  5
3B3
330
3B1
100
AcDbEntity
  8
0
100
AcDbBlockBegin
  2
block 45
 70
     0
 10
0.0
 20
0.0
 30
0.0
  3
block 45
  1

  0
SPLINE
  5
3B5
330
3B1
100
AcDbEntity
  8
Layer 1
370
     0
100
AcDbSpline
210
0.0
220
0.0
230
1.0
 70
    11
 71
     3
 72
    17
 73
    13
 74
     0
 42
0.0000000001
 43
0.0000000001
 12
1.0
 22
0.0
 32
0.0
 13
1.0
 23
0.0
 33
0.0
 40
0.0
 40
0.0
 40
0.0
 40
0.0
 40
1.0
 40
1.0
 40
1.0
 40
2.0
 40
2.0
 40
2.0
 40
3.0
 40
3.0
 40
3.0
 40
4.0
 40
4.0
 40
4.0
 40
4.0
 10
1350.502139288329
 20
-424.7779397592257
 30
0.0
 10
1350.502139288329
 20
-424.154032966847
 30
0.0
 10
1350.954135815994
 20
-423.6696525416208
 30
0.0
 10
1351.559783602301
 20
-423.6696525416208
 30
0.0
 10
1352.158541197638
 20
-423.6696525416208
 30
0.0
 10
1352.609159687108
 20
-424.154032966847
 30
0.0
 10
1352.609159687108
 20
-424.7779397592257
 30
0.0
 10
1352.609159687108
 20
-425.4018465516045
 30
0.0
 10
1352.158541197638
 20
-425.8855379577336
 30
0.0
 10
1351.559783602301
 20
-425.8855379577336
 30
0.0
 10
1350.954135815994
 20
-425.8855379577336
 30
0.0
 10
1350.502139288329
 20
-425.4018465516045
 30
0.0
 10
1350.502139288329
 20
-424.7779397592257
 30
0.0
  0
ENDBLK
  5
3B4
330
3B1
100
AcDbEntity
  8
0
100
AcDbBlockEnd
  0
BLOCK
  5
3B8
330
3B6
100
AcDbEntity
  8
0
100
AcDbBlockBegin
  2
block 46
 70
     0
 10
0.0
 20
0.0
 30
0.0
  3
block 46
  1

  0
SPLINE
  5
3BA
330
3B6
100
AcDbEntity
  8
Layer 1
370
     0
100
AcDbSpline
210
0.0
220
0.0
230
1.0
 70
    11
 71
     3
 72
    17
 73
    13
 74
     0
 42
0.0000000001
 43
0.0000000001
 12
1.0
 22
0.0
 32
0.0
 13
1.0
 23
0.0
 33
0.0
 40
0.0
 40
0.0
 40
0.0
 40
0.0
 40
1.0
 40
1.0
 40
1.0
 40
2.0
 40
2.0
 40
2.0
 40
3.0
 40
3.0
 40
3.0
 40
4.0
 40
4.0
 40
4.0
 40
4.0
 10
1350.253403394294
 20
-424.7779397592257
 30
0.0
 10
1350.253403394294
 20
-425.4955531488033
 30
0.0
 10
1350.837691588593
 20
-426.0812193812957
 30
0.0
 10
1351.556338506816
 20
-426.0812193812957
 30
0.0
 10
1352.274296405942
 20
-426.0812193812957
 30
0.0
 10
1352.85858460024
 20
-425.4955531488033
 30
0.0
 10
1352.85858460024
 20
-424.7779397592257
 30
0.0
 10
1352.85858460024
 20
-424.0596373505512
 30
0.0
 10
1352.274296405942
 20
-423.4746601371557
 30
0.0
 10
1351.556338506816
 20
-423.4746601371557
 30
0.0
 10
1350.837691588593
 20
-423.4746601371557
 30
0.0
 10
1350.253403394294
 20
-424.0596373505512
 30
0.0
 10
1350.253403394294
 20
-424.7779397592257
 30
0.0
  0
ENDBLK
  5
3B9
330
3B6
100
AcDbEntity
  8
0
100
AcDbBlockEnd
  0
BLOCK
  5
3BD
330
3BB
100
AcDbEntity
  8
0
100
AcDbBlockBegin
  2
block 47
 70
     0
 10
0.0
 20
0.0
 30
0.0
  3
block 47
  1

  0
SPLINE
  5
3BF
330
3BB
100
AcDbEntity
  8
Layer 1
370
     0
100
AcDbSpline
210
0.0
220
0.0
230
1.0
 70
    11
 71
     3
 72
    20
 73
    16
 74
     0
 42
0.0000000001
 43
0.0000000001
 12
1.0
 22
0.0
 32
0.0
 13
1.0
 23
0.0
 33
0.0
 40
0.0
 40
0.0
 40
0.0
 40
0.0
 40
1.0
 40
1.0
 40
1.0
 40
2.0
 40
2.0
 40
2.0
 40
3.0
 40
3.0
 40
3.0
 40
4.0
 40
4.0
 40
4.0
 40
5.0
 40
5.0
 40
5.0
 40
5.0
 10
1351.307602612781
 20
-424.2081209659654
 30
0.0
 10
1351.307602612781
 20
-424.2081209659654
 30
0.0
 10
1351.603191805415
 20
-424.2081209659654
 30
0.0
 10
1351.603191805415
 20
-424.2081209659654
 30
0.0
 10
1351.761666197737
 20
-424.2081209659654
 30
0.0
 10
1351.91738451367
 20
-424.257730340953
 30
0.0
 10
1351.91738451367
 20
-424.4310186438649
 30
0.0
 10
1351.91738451367
 20
-424.6301451629085
 30
0.0
 10
1351.794050095298
 20
-424.6697637609889
 30
0.0
 10
1351.603191805415
 20
-424.6697637609889
 30
0.0
 10
1351.603191805415
 20
-424.6697637609889
 30
0.0
 10
1351.307602612781
 20
-424.6697637609889
 30
0.0
 10
1351.307602612781
 20
-424.6697637609889
 30
0.0
 10
1351.307602612781
 20
-424.6697637609889
 30
0.0
 10
1351.307602612781
 20
-424.2081209659654
 30
0.0
 10
1351.307602612781
 20
-424.2081209659654
 30
0.0
  0
SPLINE
  5
3C0
330
3BB
100
AcDbEntity
  8
Layer 1
370
     0
100
AcDbSpline
210
0.0
220
0.0
230
1.0
 70
    11
 71
     3
 72
    35
 73
    31
 74
     0
 42
0.0000000001
 43
0.0000000001
 12
1.0
 22
0.0
 32
0.0
 13
1.0
 23
0.0
 33
0.0
 40
0.0
 40
0.0
 40
0.0
 40
0.0
 40
1.0
 40
1.0
 40
1.0
 40
2.0
 40
2.0
 40
2.0
 40
3.0
 40
3.0
 40
3.0
 40
4.0
 40
4.0
 40
4.0
 40
5.0
 40
5.0
 40
5.0
 40
6.0
 40
6.0
 40
6.0
 40
7.0
 40
7.0
 40
7.0
 40
8.0
 40
8.0
 40
8.0
 40
9.0
 40
9.0
 40
9.0
 40
10.0
 40
10.0
 40
10.0
 40
10.0
 10
1351.057488680552
 20
-425.5396503710183
 30
0.0
 10
1351.057488680552
 20
-425.5396503710183
 30
0.0
 10
1351.307602612781
 20
-425.5396503710183
 30
0.0
 10
1351.307602612781
 20
-425.5396503710183
 30
0.0
 10
1351.307602612781
 20
-425.5396503710183
 30
0.0
 10
1351.307602612781
 20
-424.8647561654579
 30
0.0
 10
1351.307602612781
 20
-424.8647561654579
 30
0.0
 10
1351.307602612781
 20
-424.8647561654579
 30
0.0
 10
1351.51568638009
 20
-424.8647561654579
 30
0.0
 10
1351.51568638009
 20
-424.8647561654579
 30
0.0
 10
1351.51568638009
 20
-424.8647561654579
 30
0.0
 10
1351.942189201164
 20
-425.5396503710183
 30
0.0
 10
1351.942189201164
 20
-425.5396503710183
 30
0.0
 10
1351.942189201164
 20
-425.5396503710183
 30
0.0
 10
1352.206083515334
 20
-425.5396503710183
 30
0.0
 10
1352.206083515334
 20
-425.5396503710183
 30
0.0
 10
1352.206083515334
 20
-425.5396503710183
 30
0.0
 10
1351.772690503289
 20
-424.8647561654579
 30
0.0
 10
1351.772690503289
 20
-424.8647561654579
 30
0.0
 10
1352.011091110869
 20
-424.8647561654579
 30
0.0
 10
1352.166809426802
 20
-424.6873337479636
 30
0.0
 10
1352.166809426802
 20
-424.4423874589663
 30
0.0
 10
1352.166809426802
 20
-424.154032966847
 30
0.0
 10
1351.992487595248
 20
-424.0131285615041
 30
0.0
 10
1351.642465893947
 20
-424.0131285615041
 30
0.0
 10
1351.642465893947
 20
-424.0131285615041
 30
0.0
 10
1351.057488680552
 20
-424.0131285615041
 30
0.0
 10
1351.057488680552
 20
-424.0131285615041
 30
0.0
 10
1351.057488680552
 20
-424.0131285615041
 30
0.0
 10
1351.057488680552
 20
-425.5396503710183
 30
0.0
 10
1351.057488680552
 20
-425.5396503710183
 30
0.0
  0
SPLINE
  5
3C1
330
3BB
100
AcDbEntity
  8
Layer 1
370
     0
100
AcDbSpline
210
0.0
220
0.0
230
1.0
 70
    11
 71
     3
 72
    20
 73
    16
 74
     0
 42
0.0000000001
 43
0.0000000001
 12
1.0
 22
0.0
 32
0.0
 13
1.0
 23
0.0
 33
0.0
 40
0.0
 40
0.0
 40
0.0
 40
0.0
 40
1.0
 40
1.0
 40
1.0
 40
2.0
 40
2.0
 40
2.0
 40
3.0
 40
3.0
 40
3.0
 40
4.0
 40
4.0
 40
4.0
 40
5.0
 40
5.0
 40
5.0
 40
5.0
 10
1350.502139288329
 20
-424.7779397592296
 30
0.0
 10
1350.502139288329
 20
-424.154032966847
 30
0.0
 10
1350.954135815994
 20
-423.6696525416247
 30
0.0
 10
1351.559783602301
 20
-423.6696525416247
 30
0.0
 10
1352.158541197638
 20
-423.6696525416247
 30
0.0
 10
1352.609159687108
 20
-424.154032966847
 30
0.0
 10
1352.609159687108
 20
-424.7779397592296
 30
0.0
 10
1352.609159687108
 20
-425.4018465516045
 30
0.0
 10
1352.158541197638
 20
-425.8855379577336
 30
0.0
 10
1351.559783602301
 20
-425.8855379577336
 30
0.0
 10
1350.954135815994
 20
-425.8855379577336
 30
0.0
 10
1350.502139288329
 20
-424.7779397592296
 30
0.0
 10
1350.502139288329
 20
-424.7779397592296
 30
0.0
 10
1350.502139288329
 20
-424.7779397592296
 30
0.0
 10
1350.502139288329
 20
-425.4018465516045
 30
0.0
 10
1350.502139288329
 20
-424.7779397592296
 30
0.0
  0
SPLINE
  5
3C2
330
3BB
100
AcDbEntity
  8
Layer 1
370
     0
100
AcDbSpline
210
0.0
220
0.0
230
1.0
 70
    11
 71
     3
 72
    20
 73
    16
 74
     0
 42
0.0000000001
 43
0.0000000001
 12
1.0
 22
0.0
 32
0.0
 13
1.0
 23
0.0
 33
0.0
 40
0.0
 40
0.0
 40
0.0
 40
0.0
 40
1.0
 40
1.0
 40
1.0
 40
2.0
 40
2.0
 40
2.0
 40
3.0
 40
3.0
 40
3.0
 40
4.0
 40
4.0
 40
4.0
 40
5.0
 40
5.0
 40
5.0
 40
5.0
 10
1350.253403394294
 20
-424.7779397592296
 30
0.0
 10
1350.253403394294
 20
-425.4955531488033
 30
0.0
 10
1350.837691588593
 20
-426.0812193812996
 30
0.0
 10
1351.556338506816
 20
-426.0812193812996
 30
0.0
 10
1352.274296405942
 20
-426.0812193812996
 30
0.0
 10
1352.85858460024
 20
-425.4955531488033
 30
0.0
 10
1352.85858460024
 20
-424.7779397592296
 30
0.0
 10
1352.85858460024
 20
-424.0596373505512
 30
0.0
 10
1352.274296405942
 20
-423.4746601371557
 30
0.0
 10
1351.556338506816
 20
-423.4746601371557
 30
0.0
 10
1350.837691588593
 20
-423.4746601371557
 30
0.0
 10
1350.253403394294
 20
-424.7779397592296
 30
0.0
 10
1350.253403394294
 20
-424.7779397592296
 30
0.0
 10
1350.253403394294
 20
-424.7779397592296
 30
0.0
 10
1350.253403394294
 20
-424.0596373505512
 30
0.0
 10
1350.253403394294
 20
-424.7779397592296
 30
0.0
  0
HATCH
  5
3C3
330
3BB
100
AcDbEntity
  8
Layer 1
 62
   152
420
    26316
100
AcDbHatch
 10
0.0
 20
0.0
 30
0.0
210
0.0
220
0.0
230
1.0
  2
SOLID
 70
     1
 71
     0
 91
        4
 92
        1
 93
        1
 72
     4
 94
        3
 73
     0
 74
     1
 95
       20
 96
       16
 40
0.0
 40
0.0
 40
0.0
 40
0.0
 40
1.0
 40
1.0
 40
1.0
 40
2.0
 40
2.0
 40
2.0
 40
3.0
 40
3.0
 40
3.0
 40
4.0
 40
4.0
 40
4.0
 40
5.0
 40
5.0
 40
5.0
 40
5.0
 10
1351.307602612781
 20
-424.2081209659654
 10
1351.307602612781
 20
-424.2081209659654
 10
1351.603191805415
 20
-424.2081209659654
 10
1351.603191805415
 20
-424.2081209659654
 10
1351.761666197737
 20
-424.2081209659654
 10
1351.91738451367
 20
-424.257730340953
 10
1351.91738451367
 20
-424.4310186438649
 10
1351.91738451367
 20
-424.6301451629085
 10
1351.794050095298
 20
-424.6697637609889
 10
1351.603191805415
 20
-424.6697637609889
 10
1351.603191805415
 20
-424.6697637609889
 10
1351.307602612781
 20
-424.6697637609889
 10
1351.307602612781
 20
-424.6697637609889
 10
1351.307602612781
 20
-424.6697637609889
 10
1351.307602612781
 20
-424.2081209659654
 10
1351.307602612781
 20
-424.2081209659654
 97
        0
 97
        0
 92
        1
 93
        1
 72
     4
 94
        3
 73
     0
 74
     1
 95
       35
 96
       31
 40
0.0
 40
0.0
 40
0.0
 40
0.0
 40
1.0
 40
1.0
 40
1.0
 40
2.0
 40
2.0
 40
2.0
 40
3.0
 40
3.0
 40
3.0
 40
4.0
 40
4.0
 40
4.0
 40
5.0
 40
5.0
 40
5.0
 40
6.0
 40
6.0
 40
6.0
 40
7.0
 40
7.0
 40
7.0
 40
8.0
 40
8.0
 40
8.0
 40
9.0
 40
9.0
 40
9.0
 40
10.0
 40
10.0
 40
10.0
 40
10.0
 10
1351.057488680552
 20
-425.5396503710183
 10
1351.057488680552
 20
-425.5396503710183
 10
1351.307602612781
 20
-425.5396503710183
 10
1351.307602612781
 20
-425.5396503710183
 10
1351.307602612781
 20
-425.5396503710183
 10
1351.307602612781
 20
-424.8647561654579
 10
1351.307602612781
 20
-424.8647561654579
 10
1351.307602612781
 20
-424.8647561654579
 10
1351.51568638009
 20
-424.8647561654579
 10
1351.51568638009
 20
-424.8647561654579
 10
1351.51568638009
 20
-424.8647561654579
 10
1351.942189201164
 20
-425.5396503710183
 10
1351.942189201164
 20
-425.5396503710183
 10
1351.942189201164
 20
-425.5396503710183
 10
1352.206083515334
 20
-425.5396503710183
 10
1352.206083515334
 20
-425.5396503710183
 10
1352.206083515334
 20
-425.5396503710183
 10
1351.772690503289
 20
-424.8647561654579
 10
1351.772690503289
 20
-424.8647561654579
 10
1352.011091110869
 20
-424.8647561654579
 10
1352.166809426802
 20
-424.6873337479636
 10
1352.166809426802
 20
-424.4423874589663
 10
1352.166809426802
 20
-424.154032966847
 10
1351.992487595248
 20
-424.0131285615041
 10
1351.642465893947
 20
-424.0131285615041
 10
1351.642465893947
 20
-424.0131285615041
 10
1351.057488680552
 20
-424.0131285615041
 10
1351.057488680552
 20
-424.0131285615041
 10
1351.057488680552
 20
-424.0131285615041
 10
1351.057488680552
 20
-425.5396503710183
 10
1351.057488680552
 20
-425.5396503710183
 97
        0
 97
        0
 92
        1
 93
        1
 72
     4
 94
        3
 73
     0
 74
     1
 95
       20
 96
       16
 40
0.0
 40
0.0
 40
0.0
 40
0.0
 40
1.0
 40
1.0
 40
1.0
 40
2.0
 40
2.0
 40
2.0
 40
3.0
 40
3.0
 40
3.0
 40
4.0
 40
4.0
 40
4.0
 40
5.0
 40
5.0
 40
5.0
 40
5.0
 10
1350.502139288329
 20
-424.7779397592296
 10
1350.502139288329
 20
-424.154032966847
 10
1350.954135815994
 20
-423.6696525416247
 10
1351.559783602301
 20
-423.6696525416247
 10
1352.158541197638
 20
-423.6696525416247
 10
1352.609159687108
 20
-424.154032966847
 10
1352.609159687108
 20
-424.7779397592296
 10
1352.609159687108
 20
-425.4018465516045
 10
1352.158541197638
 20
-425.8855379577336
 10
1351.559783602301
 20
-425.8855379577336
 10
1350.954135815994
 20
-425.8855379577336
 10
1350.502139288329
 20
-424.7779397592296
 10
1350.502139288329
 20
-424.7779397592296
 10
1350.502139288329
 20
-424.7779397592296
 10
1350.502139288329
 20
-425.4018465516045
 10
1350.502139288329
 20
-424.7779397592296
 97
        0
 97
        0
 92
        1
 93
        1
 72
     4
 94
        3
 73
     0
 74
     1
 95
       20
 96
       16
 40
0.0
 40
0.0
 40
0.0
 40
0.0
 40
1.0
 40
1.0
 40
1.0
 40
2.0
 40
2.0
 40
2.0
 40
3.0
 40
3.0
 40
3.0
 40
4.0
 40
4.0
 40
4.0
 40
5.0
 40
5.0
 40
5.0
 40
5.0
 10
1350.253403394294
 20
-424.7779397592296
 10
1350.253403394294
 20
-425.4955531488033
 10
1350.837691588593
 20
-426.0812193812996
 10
1351.556338506816
 20
-426.0812193812996
 10
1352.274296405942
 20
-426.0812193812996
 10
1352.85858460024
 20
-425.4955531488033
 10
1352.85858460024
 20
-424.7779397592296
 10
1352.85858460024
 20
-424.0596373505512
 10
1352.274296405942
 20
-423.4746601371557
 10
1351.556338506816
 20
-423.4746601371557
 10
1350.837691588593
 20
-423.4746601371557
 10
1350.253403394294
 20
-424.7779397592296
 10
1350.253403394294
 20
-424.7779397592296
 10
1350.253403394294
 20
-424.7779397592296
 10
1350.253403394294
 20
-424.0596373505512
 10
1350.253403394294
 20
-424.7779397592296
 97
        0
 97
        0
 75
     2
 76
     1
 98
        0
  0
ENDBLK
  5
3BE
330
3BB
100
AcDbEntity
  8
0
100
AcDbBlockEnd
  0
ENDSEC
  0
SECTION
  2
ENTITIES
  0
MTEXT
  5
41
330
1F
100
AcDbEntity
  8
Layer 1
 62
     7
420
 16777215
100
AcDbMText
 10
676.642634582901
 20
88.55626019277251
 30
0.0
 40
20.06802144782316
 41
0.0
 46
0.0
 71
     7
 72
     1
  1
\fMyriad Pro|b0|i0|c0|p34;\W1;355
 73
     1
 44
1.0
  0
POLYLINE
  5
42
330
1F
100
AcDbEntity
  8
Layer 1
 62
     7
420
 16777215
370
    35
100
AcDb2dPolyline
 66
     1
 10
0.0
 20
0.0
 30
0.0
  0
VERTEX
  5
43
330
42
100
AcDbEntity
  8
Layer 1
 62
     7
420
 16777215
370
    35
100
AcDbVertex
100
AcDb2dVertex
 10
535.7548253776567
 20
564.2504730575552
 30
0.0
  0
VERTEX
  5
44
330
42
100
AcDbEntity
  8
Layer 1
 62
     7
420
 16777215
370
    35
100
AcDbVertex
100
AcDb2dVertex
 10
861.1515949099208
 20
564.2504730575514
 30
0.0
  0
VERTEX
  5
45
330
42
100
AcDbEntity
  8
Layer 1
 62
     7
420
 16777215
370
    35
100
AcDbVertex
100
AcDb2dVertex
 10
866.8205854425397
 20
563.1166605341858
 30
0.0
  0
VERTEX
  5
46
330
42
100
AcDbEntity
  8
Layer 1
 62
     7
420
 16777215
370
    35
100
AcDbVertex
100
AcDb2dVertex
 10
871.3556913675812
 20
559.7152950483015
 30
0.0
  0
VERTEX
  5
47
330
42
100
AcDbEntity
  8
Layer 1
 62
     7
420
 16777215
370
    35
100
AcDbVertex
100
AcDb2dVertex
 10
874.7570568534659
 20
555.1801170390514
 30
0.0
  0
VERTEX
  5
48
330
42
100
AcDbEntity
  8
Layer 1
 62
     7
420
 16777215
370
    35
100
AcDbVertex
100
AcDb2dVertex
 10
875.8907972926228
 20
549.5111985906443
 30
0.0
  0
SEQEND
  5
49
330
42
100
AcDbEntity
  8
Layer 1
 62
     7
420
 16777215
370
    35
  0
POLYLINE
  5
4A
330
1F
100
AcDbEntity
  8
Layer 1
 62
     7
420
 16777215
370
    35
100
AcDb2dPolyline
 66
     1
 10
0.0
 20
0.0
 30
0.0
  0
VERTEX
  5
4B
330
4A
100
AcDbEntity
  8
Layer 1
 62
     7
420
 16777215
370
    35
100
AcDbVertex
100
AcDb2dVertex
 10
471.1290253142326
 20
564.2504730575514
 30
0.0
  0
VERTEX
  5
4C
330
4A
100
AcDbEntity
  8
Layer 1
 62
     7
420
 16777215
370
    35
100
AcDbVertex
100
AcDb2dVertex
 10
201.2878439953076
 20
564.2504730575514
 30
0.0
  0
SEQEND
  5
4D
330
4A
100
AcDbEntity
  8
Layer 1
 62
     7
420
 16777215
370
    35
  0
POLYLINE
  5
4E
330
1F
100
AcDbEntity
  8
Layer 1
 62
     7
420
 16777215
370
    35
100
AcDb2dPolyline
 66
     1
 10
0.0
 20
0.0
 30
0.0
  0
VERTEX
  5
4F
330
4E
100
AcDbEntity
  8
Layer 1
 62
     7
420
 16777215
370
    35
100
AcDbVertex
100
AcDb2dVertex
 10
185.981699308816
 20
549.5111985906408
 30
0.0
  0
VERTEX
  5
50
330
4E
100
AcDbEntity
  8
Layer 1
 62
     7
420
 16777215
370
    35
100
AcDbVertex
100
AcDb2dVertex
 10
187.1155118321822
 20
555.1801170390479
 30
0.0
  0
VERTEX
  5
51
330
4E
100
AcDbEntity
  8
Layer 1
 62
     7
420
 16777215
370
    35
100
AcDbVertex
100
AcDb2dVertex
 10
190.5168773180726
 20
559.7152950483015
 30
0.0
  0
VERTEX
  5
52
330
4E
100
AcDbEntity
  8
Layer 1
 62
     7
420
 16777215
370
    35
100
AcDbVertex
100
AcDb2dVertex
 10
195.0519832431123
 20
563.1166605341895
 30
0.0
  0
VERTEX
  5
53
330
4E
100
AcDbEntity
  8
Layer 1
 62
     7
420
 16777215
370
    35
100
AcDbVertex
100
AcDb2dVertex
 10
201.2878439953076
 20
564.2504730575514
 30
0.0
  0
SEQEND
  5
54
330
4E
100
AcDbEntity
  8
Layer 1
 62
     7
420
 16777215
370
    35
  0
POLYLINE
  5
55
330
1F
100
AcDbEntity
  8
Layer 1
 62
     7
420
 16777215
370
    35
100
AcDb2dPolyline
 66
     1
 10
0.0
 20
0.0
 30
0.0
  0
VERTEX
  5
56
330
55
100
AcDbEntity
  8
Layer 1
 62
     7
420
 16777215
370
    35
100
AcDbVertex
100
AcDb2dVertex
 10
471.1290253142326
 20
564.2504730575514
 30
0.0
  0
VERTEX
  5
57
330
55
100
AcDbEntity
  8
Layer 1
 62
     7
420
 16777215
370
    35
100
AcDbVertex
100
AcDb2dVertex
 10
476.7980158468521
 20
563.1166605341895
 30
0.0
  0
VERTEX
  5
58
330
55
100
AcDbEntity
  8
Layer 1
 62
     7
420
 16777215
370
    35
100
AcDbVertex
100
AcDb2dVertex
 10
481.3331217718969
 20
559.7152950483015
 30
0.0
  0
VERTEX
  5
59
330
55
100
AcDbEntity
  8
Layer 1
 62
     7
420
 16777215
370
    35
100
AcDbVertex
100
AcDb2dVertex
 10
484.7344872577816
 20
555.1801170390514
 30
0.0
  0
VERTEX
  5
5A
330
55
100
AcDbEntity
  8
Layer 1
 62
     7
420
 16777215
370
    35
100
AcDbVertex
100
AcDb2dVertex
 10
485.8682276969346
 20
549.5111985906408
 30
0.0
  0
SEQEND
  5
5B
330
55
100
AcDbEntity
  8
Layer 1
 62
     7
420
 16777215
370
    35
  0
POLYLINE
  5
5C
330
1F
100
AcDbEntity
  8
Layer 1
 62
     7
420
 16777215
370
    35
100
AcDb2dPolyline
 66
     1
 10
0.0
 20
0.0
 30
0.0
  0
VERTEX
  5
5D
330
5C
100
AcDbEntity
  8
Layer 1
 62
     7
420
 16777215
370
    35
100
AcDbVertex
100
AcDb2dVertex
 10
521.015622994958
 20
174.2278674197599
 30
0.0
  0
VERTEX
  5
5E
330
5C
100
AcDbEntity
  8
Layer 1
 62
     7
420
 16777215
370
    35
100
AcDbVertex
100
AcDb2dVertex
 10
521.0156229949541
 20
549.5111985906408
 30
0.0
  0
VERTEX
  5
5F
330
5C
100
AcDbEntity
  8
Layer 1
 62
     7
420
 16777215
370
    35
100
AcDbVertex
100
AcDb2dVertex
 10
522.149363434111
 20
555.1801170390514
 30
0.0
  0
VERTEX
  5
60
330
5C
100
AcDbEntity
  8
Layer 1
 62
     7
420
 16777215
370
    35
100
AcDbVertex
100
AcDb2dVertex
 10
525.5507289200028
 20
559.7152950483015
 30
0.0
  0
VERTEX
  5
61
330
5C
100
AcDbEntity
  8
Layer 1
 62
     7
420
 16777215
370
    35
100
AcDbVertex
100
AcDb2dVertex
 10
530.0859790134583
 20
563.1166605341895
 30
0.0
  0
VERTEX
  5
62
330
5C
100
AcDbEntity
  8
Layer 1
 62
     7
420
 16777215
370
    35
100
AcDbVertex
100
AcDb2dVertex
 10
535.7548253776567
 20
564.2504730575552
 30
0.0
  0
SEQEND
  5
63
330
5C
100
AcDbEntity
  8
Layer 1
 62
     7
420
 16777215
370
    35
  0
POLYLINE
  5
64
330
1F
100
AcDbEntity
  8
Layer 1
 62
     7
420
 16777215
370
    35
100
AcDb2dPolyline
 66
     1
 10
0.0
 20
0.0
 30
0.0
  0
VERTEX
  5
65
330
64
100
AcDbEntity
  8
Layer 1
 62
     7
420
 16777215
370
    35
100
AcDbVertex
100
AcDb2dVertex
 10
471.1290253142359
 20
159.4886289949536
 30
0.0
  0
VERTEX
  5
66
330
64
100
AcDbEntity
  8
Layer 1
 62
     7
420
 16777215
370
    35
100
AcDbVertex
100
AcDb2dVertex
 10
201.287843995307
 20
159.4886289949539
 30
0.0
  0
VERTEX
  5
67
330
64
100
AcDbEntity
  8
Layer 1
 62
     7
420
 16777215
370
    35
100
AcDbVertex
100
AcDb2dVertex
 10
195.0519832431142
 20
160.6224054762154
 30
0.0
  0
VERTEX
  5
68
330
64
100
AcDbEntity
  8
Layer 1
 62
     7
420
 16777215
370
    35
100
AcDbVertex
100
AcDb2dVertex
 10
190.5168773180694
 20
163.4569007425233
 30
0.0
  0
VERTEX
  5
69
330
64
100
AcDbEntity
  8
Layer 1
 62
     7
420
 16777215
370
    35
100
AcDbVertex
100
AcDb2dVertex
 10
187.1155118321873
 20
168.5589129292485
 30
0.0
  0
VERTEX
  5
6A
330
64
100
AcDbEntity
  8
Layer 1
 62
     7
420
 16777215
370
    35
100
AcDbVertex
100
AcDb2dVertex
 10
185.9816993088231
 20
174.2278674197599
 30
0.0
  0
SEQEND
  5
6B
330
64
100
AcDbEntity
  8
Layer 1
 62
     7
420
 16777215
370
    35
  0
POLYLINE
  5
6C
330
1F
100
AcDbEntity
  8
Layer 1
 62
     7
420
 16777215
370
    35
100
AcDb2dPolyline
 66
     1
 10
0.0
 20
0.0
 30
0.0
  0
VERTEX
  5
6D
330
6C
100
AcDbEntity
  8
Layer 1
 62
     7
420
 16777215
370
    35
100
AcDbVertex
100
AcDb2dVertex
 10
861.151594909924
 20
159.4886289949539
 30
0.0
  0
VERTEX
  5
6E
330
6C
100
AcDbEntity
  8
Layer 1
 62
     7
420
 16777215
370
    35
100
AcDbVertex
100
AcDb2dVertex
 10
535.7548253776599
 20
159.4886289949539
 30
0.0
  0
VERTEX
  5
6F
330
6C
100
AcDbEntity
  8
Layer 1
 62
     7
420
 16777215
370
    35
100
AcDbVertex
100
AcDb2dVertex
 10
530.0859790134615
 20
160.6224054762132
 30
0.0
  0
VERTEX
  5
70
330
6C
100
AcDbEntity
  8
Layer 1
 62
     7
420
 16777215
370
    35
100
AcDbVertex
100
AcDb2dVertex
 10
525.5507289199995
 20
163.4569007425236
 30
0.0
  0
VERTEX
  5
71
330
6C
100
AcDbEntity
  8
Layer 1
 62
     7
420
 16777215
370
    35
100
AcDbVertex
100
AcDb2dVertex
 10
522.149363434111
 20
168.5589129292488
 30
0.0
  0
VERTEX
  5
72
330
6C
100
AcDbEntity
  8
Layer 1
 62
     7
420
 16777215
370
    35
100
AcDbVertex
100
AcDb2dVertex
 10
521.015622994958
 20
174.2278674197599
 30
0.0
  0
SEQEND
  5
73
330
6C
100
AcDbEntity
  8
Layer 1
 62
     7
420
 16777215
370
    35
  0
POLYLINE
  5
74
330
1F
100
AcDbEntity
  8
Layer 1
 62
     7
420
 16777215
370
    35
100
AcDb2dPolyline
 66
     1
 10
0.0
 20
0.0
 30
0.0
  0
VERTEX
  5
75
330
74
100
AcDbEntity
  8
Layer 1
 62
     7
420
 16777215
370
    35
100
AcDbVertex
100
AcDb2dVertex
 10
875.8907972926228
 20
549.5111985906443
 30
0.0
  0
VERTEX
  5
76
330
74
100
AcDbEntity
  8
Layer 1
 62
     7
420
 16777215
370
    35
100
AcDbVertex
100
AcDb2dVertex
 10
875.890797292626
 20
174.2278674197595
 30
0.0
  0
VERTEX
  5
77
330
74
100
AcDbEntity
  8
Layer 1
 62
     7
420
 16777215
370
    35
100
AcDbVertex
100
AcDb2dVertex
 10
874.7570568534691
 20
168.5589129292485
 30
0.0
  0
VERTEX
  5
78
330
74
100
AcDbEntity
  8
Layer 1
 62
     7
420
 16777215
370
    35
100
AcDbVertex
100
AcDb2dVertex
 10
871.3556913675844
 20
163.4569007425233
 30
0.0
  0
VERTEX
  5
79
330
74
100
AcDbEntity
  8
Layer 1
 62
     7
420
 16777215
370
    35
100
AcDbVertex
100
AcDb2dVertex
 10
866.8205854425397
 20
160.6224054762148
 30
0.0
  0
VERTEX
  5
7A
330
74
100
AcDbEntity
  8
Layer 1
 62
     7
420
 16777215
370
    35
100
AcDbVertex
100
AcDb2dVertex
 10
861.151594909924
 20
159.4886289949539
 30
0.0
  0
SEQEND
  5
7B
330
74
100
AcDbEntity
  8
Layer 1
 62
     7
420
 16777215
370
    35
  0
POLYLINE
  5
7C
330
1F
100
AcDbEntity
  8
Layer 1
 62
     7
420
 16777215
370
    35
100
AcDb2dPolyline
 66
     1
 10
0.0
 20
0.0
 30
0.0
  0
VERTEX
  5
7D
330
7C
100
AcDbEntity
  8
Layer 1
 62
     7
420
 16777215
370
    35
100
AcDbVertex
100
AcDb2dVertex
 10
161.0384004684601
 20
639.0803695786359
 30
0.0
  0
VERTEX
  5
7E
330
7C
100
AcDbEntity
  8
Layer 1
 62
     7
420
 16777215
370
    35
100
AcDbVertex
100
AcDb2dVertex
 10
900.8340961329851
 20
639.0803695786359
 30
0.0
  0
VERTEX
  5
7F
330
7C
100
AcDbEntity
  8
Layer 1
 62
     7
420
 16777215
370
    35
100
AcDbVertex
100
AcDb2dVertex
 10
903.6685913992914
 20
638.5134272748488
 30
0.0
  0
VERTEX
  5
80
330
7C
100
AcDbEntity
  8
Layer 1
 62
     7
420
 16777215
370
    35
100
AcDbVertex
100
AcDb2dVertex
 10
905.3693462264439
 20
636.8127445319084
 30
0.0
  0
VERTEX
  5
81
330
7C
100
AcDbEntity
  8
Layer 1
 62
     7
420
 16777215
370
    35
100
AcDbVertex
100
AcDb2dVertex
 10
905.9362164460223
 20
634.5451915693825
 30
0.0
  0
SEQEND
  5
82
330
7C
100
AcDbEntity
  8
Layer 1
 62
     7
420
 16777215
370
    35
  0
POLYLINE
  5
83
330
1F
100
AcDbEntity
  8
Layer 1
 62
     7
420
 16777215
370
    35
100
AcDb2dPolyline
 66
     1
 10
0.0
 20
0.0
 30
0.0
  0
VERTEX
  5
84
330
83
100
AcDbEntity
  8
Layer 1
 62
     7
420
 16777215
370
    35
100
AcDbVertex
100
AcDb2dVertex
 10
155.9363522396328
 20
634.5451915693825
 30
0.0
  0
VERTEX
  5
85
330
83
100
AcDbEntity
  8
Layer 1
 62
     7
420
 16777215
370
    35
100
AcDbVertex
100
AcDb2dVertex
 10
156.503294543416
 20
636.8127445319049
 30
0.0
  0
VERTEX
  5
86
330
83
100
AcDbEntity
  8
Layer 1
 62
     7
420
 16777215
370
    35
100
AcDbVertex
100
AcDb2dVertex
 10
158.7708475059332
 20
638.5134272748453
 30
0.0
  0
VERTEX
  5
87
330
83
100
AcDbEntity
  8
Layer 1
 62
     7
420
 16777215
370
    35
100
AcDbVertex
100
AcDb2dVertex
 10
161.0384004684601
 20
639.0803695786359
 30
0.0
  0
SEQEND
  5
88
330
83
100
AcDbEntity
  8
Layer 1
 62
     7
420
 16777215
370
    35
  0
POLYLINE
  5
89
330
1F
100
AcDbEntity
  8
Layer 1
 62
     7
420
 16777215
370
    35
100
AcDb2dPolyline
 66
     1
 10
0.0
 20
0.0
 30
0.0
  0
VERTEX
  5
8A
330
89
100
AcDbEntity
  8
Layer 1
 62
     7
420
 16777215
370
    35
100
AcDbVertex
100
AcDb2dVertex
 10
485.8682276969346
 20
549.5111985906408
 30
0.0
  0
VERTEX
  5
8B
330
89
100
AcDbEntity
  8
Layer 1
 62
     7
420
 16777215
370
    35
100
AcDbVertex
100
AcDb2dVertex
 10
485.8682276969384
 20
174.2278674197595
 30
0.0
  0
VERTEX
  5
8C
330
89
100
AcDbEntity
  8
Layer 1
 62
     7
420
 16777215
370
    35
100
AcDbVertex
100
AcDb2dVertex
 10
484.7344872577816
 20
168.5589129292485
 30
0.0
  0
VERTEX
  5
8D
330
89
100
AcDbEntity
  8
Layer 1
 62
     7
420
 16777215
370
    35
100
AcDbVertex
100
AcDb2dVertex
 10
481.333121771893
 20
163.4569007425239
 30
0.0
  0
VERTEX
  5
8E
330
89
100
AcDbEntity
  8
Layer 1
 62
     7
420
 16777215
370
    35
100
AcDbVertex
100
AcDb2dVertex
 10
476.7980158468521
 20
160.6224054762154
 30
0.0
  0
VERTEX
  5
8F
330
89
100
AcDbEntity
  8
Layer 1
 62
     7
420
 16777215
370
    35
100
AcDbVertex
100
AcDb2dVertex
 10
471.1290253142359
 20
159.4886289949536
 30
0.0
  0
SEQEND
  5
90
330
89
100
AcDbEntity
  8
Layer 1
 62
     7
420
 16777215
370
    35
  0
POLYLINE
  5
91
330
1F
100
AcDbEntity
  8
Layer 1
 62
     7
420
 16777215
370
    35
100
AcDb2dPolyline
 66
     1
 10
0.0
 20
0.0
 30
0.0
  0
VERTEX
  5
92
330
91
100
AcDbEntity
  8
Layer 1
 62
     7
420
 16777215
370
    35
100
AcDbVertex
100
AcDb2dVertex
 10
900.8340961329851
 20
129.4432819257643
 30
0.0
  0
VERTEX
  5
93
330
91
100
AcDbEntity
  8
Layer 1
 62
     7
420
 16777215
370
    35
100
AcDbVertex
100
AcDb2dVertex
 10
161.0384004684608
 20
129.4432819257643
 30
0.0
  0
VERTEX
  5
94
330
91
100
AcDbEntity
  8
Layer 1
 62
     7
420
 16777215
370
    35
100
AcDbVertex
100
AcDb2dVertex
 10
158.7708475059352
 20
130.0101881874448
 30
0.0
  0
VERTEX
  5
95
330
91
100
AcDbEntity
  8
Layer 1
 62
     7
420
 16777215
370
    35
100
AcDbVertex
100
AcDb2dVertex
 10
156.5032945434185
 20
131.7108709303893
 30
0.0
  0
VERTEX
  5
96
330
91
100
AcDbEntity
  8
Layer 1
 62
     7
420
 16777215
370
    35
100
AcDbVertex
100
AcDb2dVertex
 10
155.9363522396251
 20
134.5453301545929
 30
0.0
  0
SEQEND
  5
97
330
91
100
AcDbEntity
  8
Layer 1
 62
     7
420
 16777215
370
    35
  0
POLYLINE
  5
98
330
1F
100
AcDbEntity
  8
Layer 1
 62
     7
420
 16777215
370
    35
100
AcDb2dPolyline
 66
     1
 10
0.0
 20
0.0
 30
0.0
  0
VERTEX
  5
99
330
98
100
AcDbEntity
  8
Layer 1
 62
     7
420
 16777215
370
    35
100
AcDbVertex
100
AcDb2dVertex
 10
905.9362164460223
 20
634.5451915693825
 30
0.0
  0
VERTEX
  5
9A
330
98
100
AcDbEntity
  8
Layer 1
 62
     7
420
 16777215
370
    35
100
AcDbVertex
100
AcDb2dVertex
 10
905.9362164460262
 20
134.5453301545929
 30
0.0
  0
VERTEX
  5
9B
330
98
100
AcDbEntity
  8
Layer 1
 62
     7
420
 16777215
370
    35
100
AcDbVertex
100
AcDb2dVertex
 10
905.3693462264439
 20
131.7108709303906
 30
0.0
  0
VERTEX
  5
9C
330
98
100
AcDbEntity
  8
Layer 1
 62
     7
420
 16777215
370
    35
100
AcDbVertex
100
AcDb2dVertex
 10
903.6685913992945
 20
130.010188187446
 30
0.0
  0
VERTEX
  5
9D
330
98
100
AcDbEntity
  8
Layer 1
 62
     7
420
 16777215
370
    35
100
AcDbVertex
100
AcDb2dVertex
 10
900.8340961329851
 20
129.4432819257643
 30
0.0
  0
SEQEND
  5
9E
330
98
100
AcDbEntity
  8
Layer 1
 62
     7
420
 16777215
370
    35
  0
POLYLINE
  5
9F
330
1F
100
AcDbEntity
  8
Layer 1
 62
     7
420
 16777215
370
    35
100
AcDb2dPolyline
 66
     1
 10
0.0
 20
0.0
 30
0.0
  0
VERTEX
  5
A0
330
9F
100
AcDbEntity
  8
Layer 1
 62
     7
420
 16777215
370
    35
100
AcDbVertex
100
AcDb2dVertex
 10
185.981699308816
 20
549.5111985906408
 30
0.0
  0
VERTEX
  5
A1
330
9F
100
AcDbEntity
  8
Layer 1
 62
     7
420
 16777215
370
    35
100
AcDbVertex
100
AcDb2dVertex
 10
185.9816993088231
 20
174.2278674197599
 30
0.0
  0
SEQEND
  5
A2
330
9F
100
AcDbEntity
  8
Layer 1
 62
     7
420
 16777215
370
    35
  0
POLYLINE
  5
A3
330
1F
100
AcDbEntity
  8
Layer 1
 62
     7
420
 16777215
370
    35
100
AcDb2dPolyline
 66
     1
 10
0.0
 20
0.0
 30
0.0
  0
VERTEX
  5
A4
330
A3
100
AcDbEntity
  8
Layer 1
 62
     7
420
 16777215
370
    35
100
AcDbVertex
100
AcDb2dVertex
 10
155.9363522396328
 20
634.5451915693825
 30
0.0
  0
VERTEX
  5
A5
330
A3
100
AcDbEntity
  8
Layer 1
 62
     7
420
 16777215
370
    35
100
AcDbVertex
100
AcDb2dVertex
 10
155.9363522396251
 20
134.5453301545929
 30
0.0
  0
SEQEND
  5
A6
330
A3
100
AcDbEntity
  8
Layer 1
 62
     7
420
 16777215
370
    35
  0
POLYLINE
  5
A7
330
1F
100
AcDbEntity
  8
Layer 1
 62
     7
420
 16777215
370
    35
100
AcDb2dPolyline
 66
     1
 10
0.0
 20
0.0
 30
0.0
  0
VERTEX
  5
A8
330
A7
100
AcDbEntity
  8
Layer 1
 62
     7
420
 16777215
370
    35
100
AcDbVertex
100
AcDb2dVertex
 10
906.2196515288769
 20
-66.60731299745727
 30
0.0
  0
VERTEX
  5
A9
330
A7
100
AcDbEntity
  8
Layer 1
 62
     7
420
 16777215
370
    35
100
AcDbVertex
100
AcDb2dVertex
 10
876.1742323754773
 20
-66.60731299745727
 30
0.0
  0
VERTEX
  5
AA
330
A7
100
AcDbEntity
  8
Layer 1
 62
     7
420
 16777215
370
    35
100
AcDbVertex
100
AcDb2dVertex
 10
876.1742323754773
 20
-250.8476311180641
 30
0.0
  0
VERTEX
  5
AB
330
A7
100
AcDbEntity
  8
Layer 1
 62
     7
420
 16777215
370
    35
100
AcDbVertex
100
AcDb2dVertex
 10
875.0404919363204
 20
-256.5165495664725
 30
0.0
  0
VERTEX
  5
AC
330
A7
100
AcDbEntity
  8
Layer 1
 62
     7
420
 16777215
370
    35
100
AcDbVertex
100
AcDb2dVertex
 10
871.6391264504326
 20
-261.0516554915172
 30
0.0
  0
VERTEX
  5
AD
330
A7
100
AcDbEntity
  8
Layer 1
 62
     7
420
 16777215
370
    35
100
AcDbVertex
100
AcDb2dVertex
 10
867.104020525391
 20
-264.4530209774013
 30
0.0
  0
VERTEX
  5
AE
330
A7
100
AcDbEntity
  8
Layer 1
 62
     7
420
 16777215
370
    35
100
AcDbVertex
100
AcDb2dVertex
 10
861.4350299927754
 20
-265.5868335007661
 30
0.0
  0
VERTEX
  5
AF
330
A7
100
AcDbEntity
  8
Layer 1
 62
     7
420
 16777215
370
    35
100
AcDbVertex
100
AcDb2dVertex
 10
536.0382604605074
 20
-265.5868335007648
 30
0.0
  0
VERTEX
  5
B0
330
A7
100
AcDbEntity
  8
Layer 1
 62
     7
420
 16777215
370
    35
100
AcDbVertex
100
AcDb2dVertex
 10
530.369414096309
 20
-264.4530209774025
 30
0.0
  0
VERTEX
  5
B1
330
A7
100
AcDbEntity
  8
Layer 1
 62
     7
420
 16777215
370
    35
100
AcDbVertex
100
AcDb2dVertex
 10
525.8341640028502
 20
-261.0516554915147
 30
0.0
  0
VERTEX
  5
B2
330
A7
100
AcDbEntity
  8
Layer 1
 62
     7
420
 16777215
370
    35
100
AcDbVertex
100
AcDb2dVertex
 10
522.4327985169624
 20
-256.5165495664698
 30
0.0
  0
VERTEX
  5
B3
330
A7
100
AcDbEntity
  8
Layer 1
 62
     7
420
 16777215
370
    35
100
AcDbVertex
100
AcDb2dVertex
 10
521.2990580778094
 20
-250.8476311180628
 30
0.0
  0
VERTEX
  5
B4
330
A7
100
AcDbEntity
  8
Layer 1
 62
     7
420
 16777215
370
    35
100
AcDbVertex
100
AcDb2dVertex
 10
521.2990580778094
 20
-66.60731299745598
 30
0.0
  0
SEQEND
  5
B5
330
A7
100
AcDbEntity
  8
Layer 1
 62
     7
420
 16777215
370
    35
  0
POLYLINE
  5
B6
330
1F
100
AcDbEntity
  8
Layer 1
 62
     7
420
 16777215
370
    35
100
AcDb2dPolyline
 66
     1
 10
0.0
 20
0.0
 30
0.0
  0
VERTEX
  5
B7
330
B6
100
AcDbEntity
  8
Layer 1
 62
     7
420
 16777215
370
    35
100
AcDbVertex
100
AcDb2dVertex
 10
471.412460397084
 20
-265.5868335007673
 30
0.0
  0
VERTEX
  5
B8
330
B6
100
AcDbEntity
  8
Layer 1
 62
     7
420
 16777215
370
    35
100
AcDbVertex
100
AcDb2dVertex
 10
201.5712790781615
 20
-265.5868335007686
 30
0.0
  0
VERTEX
  5
B9
330
B6
100
AcDbEntity
  8
Layer 1
 62
     7
420
 16777215
370
    35
100
AcDbVertex
100
AcDb2dVertex
 10
195.3354183259623
 20
-264.4530209773987
 30
0.0
  0
VERTEX
  5
BA
330
B6
100
AcDbEntity
  8
Layer 1
 62
     7
420
 16777215
370
    35
100
AcDbVertex
100
AcDb2dVertex
 10
190.800312400922
 20
-261.0516554915147
 30
0.0
  0
VERTEX
  5
BB
330
B6
100
AcDbEntity
  8
Layer 1
 62
     7
420
 16777215
370
    35
100
AcDbVertex
100
AcDb2dVertex
 10
187.3989469150367
 20
-256.516549566475
 30
0.0
  0
VERTEX
  5
BC
330
B6
100
AcDbEntity
  8
Layer 1
 62
     7
420
 16777215
370
    35
100
AcDbVertex
100
AcDb2dVertex
 10
186.2651343916712
 20
-250.8476311180667
 30
0.0
  0
VERTEX
  5
BD
330
B6
100
AcDbEntity
  8
Layer 1
 62
     7
420
 16777215
370
    35
100
AcDbVertex
100
AcDb2dVertex
 10
186.2651343916738
 20
-66.60731299746111
 30
0.0
  0
VERTEX
  5
BE
330
B6
100
AcDbEntity
  8
Layer 1
 62
     7
420
 16777215
370
    35
100
AcDbVertex
100
AcDb2dVertex
 10
156.2197873224797
 20
-66.60731299746111
 30
0.0
  0
SEQEND
  5
BF
330
B6
100
AcDbEntity
  8
Layer 1
 62
     7
420
 16777215
370
    35
  0
POLYLINE
  5
C0
330
1F
100
AcDbEntity
  8
Layer 1
 62
     7
420
 16777215
370
    35
100
AcDb2dPolyline
 66
     1
 10
0.0
 20
0.0
 30
0.0
  0
VERTEX
  5
C1
330
C0
100
AcDbEntity
  8
Layer 1
 62
     7
420
 16777215
370
    35
100
AcDbVertex
100
AcDb2dVertex
 10
906.2196515288769
 20
-66.60731299745727
 30
0.0
  0
VERTEX
  5
C2
330
C0
100
AcDbEntity
  8
Layer 1
 62
     7
420
 16777215
370
    35
100
AcDbVertex
100
AcDb2dVertex
 10
906.2196515288737
 20
-67.74105343661289
 30
0.0
  0
VERTEX
  5
C3
330
C0
100
AcDbEntity
  8
Layer 1
 62
     7
420
 16777215
370
    35
100
AcDbVertex
100
AcDb2dVertex
 10
877.3081169830514
 20
-67.74105343661289
 30
0.0
  0
VERTEX
  5
C4
330
C0
100
AcDbEntity
  8
Layer 1
 62
     7
420
 16777215
370
    35
100
AcDbVertex
100
AcDb2dVertex
 10
877.3081169830514
 20
-250.8476311180628
 30
0.0
  0
VERTEX
  5
C5
330
C0
100
AcDbEntity
  8
Layer 1
 62
     7
420
 16777215
370
    35
100
AcDbVertex
100
AcDb2dVertex
 10
876.1742323754735
 20
-257.0834197860496
 30
0.0
  0
VERTEX
  5
C6
330
C0
100
AcDbEntity
  8
Layer 1
 62
     7
420
 16777215
370
    35
100
AcDbVertex
100
AcDb2dVertex
 10
872.7728668895895
 20
-262.1854680148808
 30
0.0
  0
VERTEX
  5
C7
330
C0
100
AcDbEntity
  8
Layer 1
 62
     7
420
 16777215
370
    35
100
AcDbVertex
100
AcDb2dVertex
 10
867.104020525391
 20
-265.5868335007661
 30
0.0
  0
VERTEX
  5
C8
330
C0
100
AcDbEntity
  8
Layer 1
 62
     7
420
 16777215
370
    35
100
AcDbVertex
100
AcDb2dVertex
 10
861.4350299927754
 20
-266.7206460241309
 30
0.0
  0
VERTEX
  5
C9
330
C0
100
AcDbEntity
  8
Layer 1
 62
     7
420
 16777215
370
    35
100
AcDbVertex
100
AcDb2dVertex
 10
536.0382604605113
 20
-266.7206460241296
 30
0.0
  0
VERTEX
  5
CA
330
C0
100
AcDbEntity
  8
Layer 1
 62
     7
420
 16777215
370
    35
100
AcDbVertex
100
AcDb2dVertex
 10
529.8025438767305
 20
-265.5868335007686
 30
0.0
  0
VERTEX
  5
CB
330
C0
100
AcDbEntity
  8
Layer 1
 62
     7
420
 16777215
370
    35
100
AcDbVertex
100
AcDb2dVertex
 10
524.7004235636972
 20
-262.1854680148808
 30
0.0
  0
VERTEX
  5
CC
330
C0
100
AcDbEntity
  8
Layer 1
 62
     7
420
 16777215
370
    35
100
AcDbVertex
100
AcDb2dVertex
 10
521.2990580778094
 20
-257.0834197860484
 30
0.0
  0
VERTEX
  5
CD
330
C0
100
AcDbEntity
  8
Layer 1
 62
     7
420
 16777215
370
    35
100
AcDbVertex
100
AcDb2dVertex
 10
520.1653176386525
 20
-250.8476311180641
 30
0.0
  0
SEQEND
  5
CE
330
C0
100
AcDbEntity
  8
Layer 1
 62
     7
420
 16777215
370
    35
  0
POLYLINE
  5
CF
330
1F
100
AcDbEntity
  8
Layer 1
 62
     7
420
 16777215
370
    35
100
AcDb2dPolyline
 66
     1
 10
0.0
 20
0.0
 30
0.0
  0
VERTEX
  5
D0
330
CF
100
AcDbEntity
  8
Layer 1
 62
     7
420
 16777215
370
    35
100
AcDbVertex
100
AcDb2dVertex
 10
156.2197873224797
 20
-66.60731299746111
 30
0.0
  0
VERTEX
  5
D1
330
CF
100
AcDbEntity
  8
Layer 1
 62
     7
420
 16777215
370
    35
100
AcDbVertex
100
AcDb2dVertex
 10
156.2197873224848
 20
-67.74105343661674
 30
0.0
  0
VERTEX
  5
D2
330
CF
100
AcDbEntity
  8
Layer 1
 62
     7
420
 16777215
370
    35
100
AcDbVertex
100
AcDb2dVertex
 10
185.1313939525156
 20
-67.74105343661289
 30
0.0
  0
VERTEX
  5
D3
330
CF
100
AcDbEntity
  8
Layer 1
 62
     7
420
 16777215
370
    35
100
AcDbVertex
100
AcDb2dVertex
 10
185.1313939525143
 20
-250.8476311180641
 30
0.0
  0
SEQEND
  5
D4
330
CF
100
AcDbEntity
  8
Layer 1
 62
     7
420
 16777215
370
    35
  0
POLYLINE
  5
D5
330
1F
100
AcDbEntity
  8
Layer 1
 62
     7
420
 16777215
370
    35
100
AcDb2dPolyline
 66
     1
 10
0.0
 20
0.0
 30
0.0
  0
VERTEX
  5
D6
330
D5
100
AcDbEntity
  8
Layer 1
 62
     7
420
 16777215
370
    35
100
AcDbVertex
100
AcDb2dVertex
 10
201.5712790781602
 20
-266.7206460241335
 30
0.0
  0
VERTEX
  5
D7
330
D5
100
AcDbEntity
  8
Layer 1
 62
     7
420
 16777215
370
    35
100
AcDbVertex
100
AcDb2dVertex
 10
195.3354183259675
 20
-265.5868335007635
 30
0.0
  0
VERTEX
  5
D8
330
D5
100
AcDbEntity
  8
Layer 1
 62
     7
420
 16777215
370
    35
100
AcDbVertex
100
AcDb2dVertex
 10
189.6664998775578
 20
-262.1854680148808
 30
0.0
  0
VERTEX
  5
D9
330
D5
100
AcDbEntity
  8
Layer 1
 62
     7
420
 16777215
370
    35
100
AcDbVertex
100
AcDb2dVertex
 10
186.2651343916732
 20
-257.0834197860535
 30
0.0
  0
VERTEX
  5
DA
330
D5
100
AcDbEntity
  8
Layer 1
 62
     7
420
 16777215
370
    35
100
AcDbVertex
100
AcDb2dVertex
 10
185.1313939525143
 20
-250.8476311180641
 30
0.0
  0
SEQEND
  5
DB
330
D5
100
AcDbEntity
  8
Layer 1
 62
     7
420
 16777215
370
    35
  0
POLYLINE
  5
DC
330
1F
100
AcDbEntity
  8
Layer 1
 62
     7
420
 16777215
370
    35
100
AcDb2dPolyline
 66
     1
 10
0.0
 20
0.0
 30
0.0
  0
VERTEX
  5
DD
330
DC
100
AcDbEntity
  8
Layer 1
 62
     7
420
 16777215
370
    35
100
AcDbVertex
100
AcDb2dVertex
 10
201.5712790781602
 20
-266.7206460241335
 30
0.0
  0
VERTEX
  5
DE
330
DC
100
AcDbEntity
  8
Layer 1
 62
     7
420
 16777215
370
    35
100
AcDbVertex
100
AcDb2dVertex
 10
471.4124603970872
 20
-266.7206460241335
 30
0.0
  0
SEQEND
  5
DF
330
DC
100
AcDbEntity
  8
Layer 1
 62
     7
420
 16777215
370
    35
  0
POLYLINE
  5
E0
330
1F
100
AcDbEntity
  8
Layer 1
 62
     7
420
 16777215
370
    35
100
AcDb2dPolyline
 66
     1
 10
0.0
 20
0.0
 30
0.0
  0
VERTEX
  5
E1
330
E0
100
AcDbEntity
  8
Layer 1
 62
     7
420
 16777215
370
    35
100
AcDbVertex
100
AcDb2dVertex
 10
651.9679779489549
 20
444.069084780794
 30
0.0
  0
VERTEX
  5
E2
330
E0
100
AcDbEntity
  8
Layer 1
 62
     7
420
 16777215
370
    35
100
AcDbVertex
100
AcDb2dVertex
 10
653.1017183881117
 20
454.8400514580258
 30
0.0
  0
VERTEX
  5
E3
330
E0
100
AcDbEntity
  8
Layer 1
 62
     7
420
 16777215
370
    35
100
AcDbVertex
100
AcDb2dVertex
 10
656.5030838739964
 20
464.4772056118991
 30
0.0
  0
VERTEX
  5
E4
330
E0
100
AcDbEntity
  8
Layer 1
 62
     7
420
 16777215
370
    35
100
AcDbVertex
100
AcDb2dVertex
 10
662.1720744066153
 20
473.5474895461944
 30
0.0
  0
VERTEX
  5
E5
330
E0
100
AcDbEntity
  8
Layer 1
 62
     7
420
 16777215
370
    35
100
AcDbVertex
100
AcDb2dVertex
 10
669.5416755979662
 20
480.9170907375454
 30
0.0
  0
VERTEX
  5
E6
330
E0
100
AcDbEntity
  8
Layer 1
 62
     7
420
 16777215
370
    35
100
AcDbVertex
100
AcDb2dVertex
 10
678.0450172284709
 20
486.0191389663775
 30
0.0
  0
VERTEX
  5
E7
330
E0
100
AcDbEntity
  8
Layer 1
 62
     7
420
 16777215
370
    35
100
AcDbVertex
100
AcDb2dVertex
 10
688.2491136861313
 20
489.4205044522622
 30
0.0
  0
VERTEX
  5
E8
330
E0
100
AcDbEntity
  8
Layer 1
 62
     7
420
 16777215
370
    35
100
AcDbVertex
100
AcDb2dVertex
 10
698.4532101437885
 20
490.5543169756276
 30
0.0
  0
VERTEX
  5
E9
330
E0
100
AcDbEntity
  8
Layer 1
 62
     7
420
 16777215
370
    35
100
AcDbVertex
100
AcDb2dVertex
 10
708.6573066014489
 20
489.4205044522622
 30
0.0
  0
VERTEX
  5
EA
330
E0
100
AcDbEntity
  8
Layer 1
 62
     7
420
 16777215
370
    35
100
AcDbVertex
100
AcDb2dVertex
 10
718.8614030591099
 20
486.019138966374
 30
0.0
  0
VERTEX
  5
EB
330
E0
100
AcDbEntity
  8
Layer 1
 62
     7
420
 16777215
370
    35
100
AcDbVertex
100
AcDb2dVertex
 10
727.364744689614
 20
480.9170907375454
 30
0.0
  0
VERTEX
  5
EC
330
E0
100
AcDbEntity
  8
Layer 1
 62
     7
420
 16777215
370
    35
100
AcDbVertex
100
AcDb2dVertex
 10
734.734345880965
 20
473.5474895461944
 30
0.0
  0
VERTEX
  5
ED
330
E0
100
AcDbEntity
  8
Layer 1
 62
     7
420
 16777215
370
    35
100
AcDbVertex
100
AcDb2dVertex
 10
740.4033364135844
 20
464.4772056118991
 30
0.0
  0
VERTEX
  5
EE
330
E0
100
AcDbEntity
  8
Layer 1
 62
     7
420
 16777215
370
    35
100
AcDbVertex
100
AcDb2dVertex
 10
743.804701899469
 20
454.8400514580293
 30
0.0
  0
VERTEX
  5
EF
330
E0
100
AcDbEntity
  8
Layer 1
 62
     7
420
 16777215
370
    35
100
AcDbVertex
100
AcDb2dVertex
 10
744.9384423386259
 20
444.0690847807901
 30
0.0
  0
VERTEX
  5
F0
330
E0
100
AcDbEntity
  8
Layer 1
 62
     7
420
 16777215
370
    35
100
AcDbVertex
100
AcDb2dVertex
 10
743.804701899469
 20
433.8649883231333
 30
0.0
  0
VERTEX
  5
F1
330
E0
100
AcDbEntity
  8
Layer 1
 62
     7
420
 16777215
370
    35
100
AcDbVertex
100
AcDb2dVertex
 10
740.4033364135844
 20
424.227762085051
 30
0.0
  0
VERTEX
  5
F2
330
E0
100
AcDbEntity
  8
Layer 1
 62
     7
420
 16777215
370
    35
100
AcDbVertex
100
AcDb2dVertex
 10
734.734345880965
 20
415.1574781507593
 30
0.0
  0
VERTEX
  5
F3
330
E0
100
AcDbEntity
  8
Layer 1
 62
     7
420
 16777215
370
    35
100
AcDbVertex
100
AcDb2dVertex
 10
727.364744689614
 20
407.7878769594083
 30
0.0
  0
VERTEX
  5
F4
330
E0
100
AcDbEntity
  8
Layer 1
 62
     7
420
 16777215
370
    35
100
AcDbVertex
100
AcDb2dVertex
 10
718.8614030591099
 20
402.6858287305765
 30
0.0
  0
VERTEX
  5
F5
330
E0
100
AcDbEntity
  8
Layer 1
 62
     7
420
 16777215
370
    35
100
AcDbVertex
100
AcDb2dVertex
 10
708.6573066014527
 20
398.7175930251099
 30
0.0
  0
VERTEX
  5
F6
330
E0
100
AcDbEntity
  8
Layer 1
 62
     7
420
 16777215
370
    35
100
AcDbVertex
100
AcDb2dVertex
 10
698.4532101437917
 20
397.583780501748
 30
0.0
  0
VERTEX
  5
F7
330
E0
100
AcDbEntity
  8
Layer 1
 62
     7
420
 16777215
370
    35
100
AcDbVertex
100
AcDb2dVertex
 10
688.2491136861313
 20
398.7175930251134
 30
0.0
  0
VERTEX
  5
F8
330
E0
100
AcDbEntity
  8
Layer 1
 62
     7
420
 16777215
370
    35
100
AcDbVertex
100
AcDb2dVertex
 10
678.0450172284709
 20
402.6858287305798
 30
0.0
  0
VERTEX
  5
F9
330
E0
100
AcDbEntity
  8
Layer 1
 62
     7
420
 16777215
370
    35
100
AcDbVertex
100
AcDb2dVertex
 10
669.541675597963
 20
407.7878769594083
 30
0.0
  0
VERTEX
  5
FA
330
E0
100
AcDbEntity
  8
Layer 1
 62
     7
420
 16777215
370
    35
100
AcDbVertex
100
AcDb2dVertex
 10
662.1720744066121
 20
415.1574781507593
 30
0.0
  0
VERTEX
  5
FB
330
E0
100
AcDbEntity
  8
Layer 1
 62
     7
420
 16777215
370
    35
100
AcDbVertex
100
AcDb2dVertex
 10
656.5030838739964
 20
424.227762085051
 30
0.0
  0
VERTEX
  5
FC
330
E0
100
AcDbEntity
  8
Layer 1
 62
     7
420
 16777215
370
    35
100
AcDbVertex
100
AcDb2dVertex
 10
653.1017183881117
 20
433.8649883231298
 30
0.0
  0
VERTEX
  5
FD
330
E0
100
AcDbEntity
  8
Layer 1
 62
     7
420
 16777215
370
    35
100
AcDbVertex
100
AcDb2dVertex
 10
651.9679779489549
 20
444.069084780794
 30
0.0
  0
SEQEND
  5
FE
330
E0
100
AcDbEntity
  8
Layer 1
 62
     7
420
 16777215
370
    35
  0
POLYLINE
  5
FF
330
1F
100
AcDbEntity
  8
Layer 1
 62
     7
420
 16777215
370
    35
100
AcDb2dPolyline
 66
     1
 10
0.0
 20
0.0
 30
0.0
  0
VERTEX
  5
100
330
FF
100
AcDbEntity
  8
Layer 1
 62
     7
420
 16777215
370
    35
100
AcDbVertex
100
AcDb2dVertex
 10
641.7638814912976
 20
444.0690847807901
 30
0.0
  0
VERTEX
  5
101
330
FF
100
AcDbEntity
  8
Layer 1
 62
     7
420
 16777215
370
    35
100
AcDbVertex
100
AcDb2dVertex
 10
642.8977660988685
 20
455.4069216776078
 30
0.0
  0
VERTEX
  5
102
330
FF
100
AcDbEntity
  8
Layer 1
 62
     7
420
 16777215
370
    35
100
AcDbVertex
100
AcDb2dVertex
 10
646.2991315847563
 20
466.1778883548434
 30
0.0
  0
VERTEX
  5
103
330
FF
100
AcDbEntity
  8
Layer 1
 62
     7
420
 16777215
370
    35
100
AcDbVertex
100
AcDb2dVertex
 10
651.4011077293763
 20
475.8151145929257
 30
0.0
  0
VERTEX
  5
104
330
FF
100
AcDbEntity
  8
Layer 1
 62
     7
420
 16777215
370
    35
100
AcDbVertex
100
AcDb2dVertex
 10
658.2038387011489
 20
484.3184562234297
 30
0.0
  0
VERTEX
  5
105
330
FF
100
AcDbEntity
  8
Layer 1
 62
     7
420
 16777215
370
    35
100
AcDbVertex
100
AcDb2dVertex
 10
667.2740505512353
 20
491.1211871952061
 30
0.0
  0
VERTEX
  5
106
330
FF
100
AcDbEntity
  8
Layer 1
 62
     7
420
 16777215
370
    35
100
AcDbVertex
100
AcDb2dVertex
 10
676.911276789314
 20
496.7901056436131
 30
0.0
  0
VERTEX
  5
107
330
FF
100
AcDbEntity
  8
Layer 1
 62
     7
420
 16777215
370
    35
100
AcDbVertex
100
AcDb2dVertex
 10
687.1153732469744
 20
499.624600909919
 30
0.0
  0
VERTEX
  5
108
330
FF
100
AcDbEntity
  8
Layer 1
 62
     7
420
 16777215
370
    35
100
AcDbVertex
100
AcDb2dVertex
 10
698.4532101437885
 20
500.7584134332848
 30
0.0
  0
VERTEX
  5
109
330
FF
100
AcDbEntity
  8
Layer 1
 62
     7
420
 16777215
370
    35
100
AcDbVertex
100
AcDb2dVertex
 10
709.2241768210273
 20
499.624600909919
 30
0.0
  0
VERTEX
  5
10A
330
FF
100
AcDbEntity
  8
Layer 1
 62
     7
420
 16777215
370
    35
100
AcDbVertex
100
AcDb2dVertex
 10
719.9951434982629
 20
496.7901056436131
 30
0.0
  0
VERTEX
  5
10B
330
FF
100
AcDbEntity
  8
Layer 1
 62
     7
420
 16777215
370
    35
100
AcDbVertex
100
AcDb2dVertex
 10
729.6323697363455
 20
491.1211871952061
 30
0.0
  0
VERTEX
  5
10C
330
FF
100
AcDbEntity
  8
Layer 1
 62
     7
420
 16777215
370
    35
100
AcDbVertex
100
AcDb2dVertex
 10
738.1357113668528
 20
484.3184562234297
 30
0.0
  0
VERTEX
  5
10D
330
FF
100
AcDbEntity
  8
Layer 1
 62
     7
420
 16777215
370
    35
100
AcDbVertex
100
AcDb2dVertex
 10
745.5054567266216
 20
475.8151145929218
 30
0.0
  0
VERTEX
  5
10E
330
FF
100
AcDbEntity
  8
Layer 1
 62
     7
420
 16777215
370
    35
100
AcDbVertex
100
AcDb2dVertex
 10
750.6074328712416
 20
466.1778883548434
 30
0.0
  0
VERTEX
  5
10F
330
FF
100
AcDbEntity
  8
Layer 1
 62
     7
420
 16777215
370
    35
100
AcDbVertex
100
AcDb2dVertex
 10
754.0087983571294
 20
455.4069216776078
 30
0.0
  0
VERTEX
  5
110
330
FF
100
AcDbEntity
  8
Layer 1
 62
     7
420
 16777215
370
    35
100
AcDbVertex
100
AcDb2dVertex
 10
755.1425387962863
 20
444.0690847807901
 30
0.0
  0
VERTEX
  5
111
330
FF
100
AcDbEntity
  8
Layer 1
 62
     7
420
 16777215
370
    35
100
AcDbVertex
100
AcDb2dVertex
 10
754.0087983571294
 20
433.2981181035548
 30
0.0
  0
VERTEX
  5
112
330
FF
100
AcDbEntity
  8
Layer 1
 62
     7
420
 16777215
370
    35
100
AcDbVertex
100
AcDb2dVertex
 10
750.6074328712416
 20
422.5271514263156
 30
0.0
  0
VERTEX
  5
113
330
FF
100
AcDbEntity
  8
Layer 1
 62
     7
420
 16777215
370
    35
100
AcDbVertex
100
AcDb2dVertex
 10
745.5054567266216
 20
412.8899251882334
 30
0.0
  0
VERTEX
  5
114
330
FF
100
AcDbEntity
  8
Layer 1
 62
     7
420
 16777215
370
    35
100
AcDbVertex
100
AcDb2dVertex
 10
738.1357113668528
 20
404.3865114735205
 30
0.0
  0
VERTEX
  5
115
330
FF
100
AcDbEntity
  8
Layer 1
 62
     7
420
 16777215
370
    35
100
AcDbVertex
100
AcDb2dVertex
 10
729.6323697363488
 20
397.0169102821695
 30
0.0
  0
VERTEX
  5
116
330
FF
100
AcDbEntity
  8
Layer 1
 62
     7
420
 16777215
370
    35
100
AcDbVertex
100
AcDb2dVertex
 10
719.9951434982668
 20
391.9148620533409
 30
0.0
  0
VERTEX
  5
117
330
FF
100
AcDbEntity
  8
Layer 1
 62
     7
420
 16777215
370
    35
100
AcDbVertex
100
AcDb2dVertex
 10
709.2241768210273
 20
389.0804388712401
 30
0.0
  0
VERTEX
  5
118
330
FF
100
AcDbEntity
  8
Layer 1
 62
     7
420
 16777215
370
    35
100
AcDbVertex
100
AcDb2dVertex
 10
698.4532101437917
 20
387.9466263478746
 30
0.0
  0
VERTEX
  5
119
330
FF
100
AcDbEntity
  8
Layer 1
 62
     7
420
 16777215
370
    35
100
AcDbVertex
100
AcDb2dVertex
 10
687.1153732469744
 20
389.0804388712401
 30
0.0
  0
VERTEX
  5
11A
330
FF
100
AcDbEntity
  8
Layer 1
 62
     7
420
 16777215
370
    35
100
AcDbVertex
100
AcDb2dVertex
 10
676.911276789314
 20
391.9148620533409
 30
0.0
  0
VERTEX
  5
11B
330
FF
100
AcDbEntity
  8
Layer 1
 62
     7
420
 16777215
370
    35
100
AcDbVertex
100
AcDb2dVertex
 10
667.2740505512353
 20
397.0169102821695
 30
0.0
  0
VERTEX
  5
11C
330
FF
100
AcDbEntity
  8
Layer 1
 62
     7
420
 16777215
370
    35
100
AcDbVertex
100
AcDb2dVertex
 10
658.2038387011489
 20
404.3865114735205
 30
0.0
  0
VERTEX
  5
11D
330
FF
100
AcDbEntity
  8
Layer 1
 62
     7
420
 16777215
370
    35
100
AcDbVertex
100
AcDb2dVertex
 10
651.4011077293763
 20
412.8899251882369
 30
0.0
  0
VERTEX
  5
11E
330
FF
100
AcDbEntity
  8
Layer 1
 62
     7
420
 16777215
370
    35
100
AcDbVertex
100
AcDb2dVertex
 10
646.2991315847563
 20
422.5271514263192
 30
0.0
  0
VERTEX
  5
11F
330
FF
100
AcDbEntity
  8
Layer 1
 62
     7
420
 16777215
370
    35
100
AcDbVertex
100
AcDb2dVertex
 10
642.8977660988717
 20
433.2981181035548
 30
0.0
  0
VERTEX
  5
120
330
FF
100
AcDbEntity
  8
Layer 1
 62
     7
420
 16777215
370
    35
100
AcDbVertex
100
AcDb2dVertex
 10
641.7638814912976
 20
444.0690847807901
 30
0.0
  0
SEQEND
  5
121
330
FF
100
AcDbEntity
  8
Layer 1
 62
     7
420
 16777215
370
    35
  0
POLYLINE
  5
122
330
1F
100
AcDbEntity
  8
Layer 1
 62
     7
420
 16777215
370
    35
100
AcDb2dPolyline
 66
     1
 10
0.0
 20
0.0
 30
0.0
  0
VERTEX
  5
123
330
122
100
AcDbEntity
  8
Layer 1
 62
     7
420
 16777215
370
    35
100
AcDbVertex
100
AcDb2dVertex
 10
728.4986292971886
 20
396.450040062591
 30
0.0
  0
VERTEX
  5
124
330
122
100
AcDbEntity
  8
Layer 1
 62
     7
420
 16777215
370
    35
100
AcDbVertex
100
AcDb2dVertex
 10
861.151594909924
 20
174.2278674197589
 30
0.0
  0
SEQEND
  5
125
330
122
100
AcDbEntity
  8
Layer 1
 62
     7
420
 16777215
370
    35
  0
POLYLINE
  5
126
330
1F
100
AcDbEntity
  8
Layer 1
 62
     7
420
 16777215
370
    35
100
AcDb2dPolyline
 66
     1
 10
0.0
 20
0.0
 30
0.0
  0
VERTEX
  5
127
330
126
100
AcDbEntity
  8
Layer 1
 62
     7
420
 16777215
370
    35
100
AcDbVertex
100
AcDb2dVertex
 10
668.4079351588093
 20
396.450040062591
 30
0.0
  0
VERTEX
  5
128
330
126
100
AcDbEntity
  8
Layer 1
 62
     7
420
 16777215
370
    35
100
AcDbVertex
100
AcDb2dVertex
 10
535.7548253776599
 20
174.2278674197605
 30
0.0
  0
SEQEND
  5
129
330
126
100
AcDbEntity
  8
Layer 1
 62
     7
420
 16777215
370
    35
  0
POLYLINE
  5
12A
330
1F
100
AcDbEntity
  8
Layer 1
 62
     7
420
 16777215
370
    35
100
AcDb2dPolyline
 66
     1
 10
0.0
 20
0.0
 30
0.0
  0
VERTEX
  5
12B
330
12A
100
AcDbEntity
  8
Layer 1
 62
     7
420
 16777215
370
    35
100
AcDbVertex
100
AcDb2dVertex
 10
745.5054567266216
 20
475.8151145929218
 30
0.0
  0
VERTEX
  5
12C
330
12A
100
AcDbEntity
  8
Layer 1
 62
     7
420
 16777215
370
    35
100
AcDbVertex
100
AcDb2dVertex
 10
861.1515949099208
 20
549.5111985906408
 30
0.0
  0
SEQEND
  5
12D
330
12A
100
AcDbEntity
  8
Layer 1
 62
     7
420
 16777215
370
    35
  0
POLYLINE
  5
12E
330
1F
100
AcDbEntity
  8
Layer 1
 62
     7
420
 16777215
370
    35
100
AcDb2dPolyline
 66
     1
 10
0.0
 20
0.0
 30
0.0
  0
VERTEX
  5
12F
330
12E
100
AcDbEntity
  8
Layer 1
 62
     7
420
 16777215
370
    35
100
AcDbVertex
100
AcDb2dVertex
 10
651.4011077293763
 20
475.8151145929257
 30
0.0
  0
VERTEX
  5
130
330
12E
100
AcDbEntity
  8
Layer 1
 62
     7
420
 16777215
370
    35
100
AcDbVertex
100
AcDb2dVertex
 10
535.7548253776567
 20
549.5111985906443
 30
0.0
  0
SEQEND
  5
131
330
12E
100
AcDbEntity
  8
Layer 1
 62
     7
420
 16777215
370
    35
  0
POLYLINE
  5
132
330
1F
100
AcDbEntity
  8
Layer 1
 62
     7
420
 16777215
370
    35
100
AcDb2dPolyline
 66
     1
 10
0.0
 20
0.0
 30
0.0
  0
VERTEX
  5
133
330
132
100
AcDbEntity
  8
Layer 1
 62
     7
420
 16777215
370
    35
100
AcDbVertex
100
AcDb2dVertex
 10
487.2855473873639
 20
-67.74105343661418
 30
0.0
  0
VERTEX
  5
134
330
132
100
AcDbEntity
  8
Layer 1
 62
     7
420
 16777215
370
    35
100
AcDbVertex
100
AcDb2dVertex
 10
520.1653176386525
 20
-67.74105343661289
 30
0.0
  0
SEQEND
  5
135
330
132
100
AcDbEntity
  8
Layer 1
 62
     7
420
 16777215
370
    35
  0
POLYLINE
  5
136
330
1F
100
AcDbEntity
  8
Layer 1
 62
     7
420
 16777215
370
    35
100
AcDb2dPolyline
 66
     1
 10
0.0
 20
0.0
 30
0.0
  0
VERTEX
  5
137
330
136
100
AcDbEntity
  8
Layer 1
 62
     7
420
 16777215
370
    35
100
AcDbVertex
100
AcDb2dVertex
 10
186.2651343916738
 20
-66.60731299746111
 30
0.0
  0
VERTEX
  5
138
330
136
100
AcDbEntity
  8
Layer 1
 62
     7
420
 16777215
370
    35
100
AcDbVertex
100
AcDb2dVertex
 10
876.1742323754773
 20
-66.60731299745727
 30
0.0
  0
SEQEND
  5
139
330
136
100
AcDbEntity
  8
Layer 1
 62
     7
420
 16777215
370
    35
  0
POLYLINE
  5
13A
330
1F
100
AcDbEntity
  8
Layer 1
 62
     7
420
 16777215
370
    35
100
AcDb2dPolyline
 66
     1
 10
0.0
 20
0.0
 30
0.0
  0
VERTEX
  5
13B
330
13A
100
AcDbEntity
  8
Layer 1
 62
     7
420
 16777215
370
    35
100
AcDbVertex
100
AcDb2dVertex
 10
758.8273393650217
 20
-266.7206460241296
 30
0.0
  0
VERTEX
  5
13C
330
13A
100
AcDbEntity
  8
Layer 1
 62
     7
420
 16777215
370
    35
100
AcDbVertex
100
AcDb2dVertex
 10
755.4259738791377
 20
-270.6888817295959
 30
0.0
  0
VERTEX
  5
13D
330
13A
100
AcDbEntity
  8
Layer 1
 62
     7
420
 16777215
370
    35
100
AcDbVertex
100
AcDb2dVertex
 10
743.5212667627451
 20
-274.0902472154813
 30
0.0
  0
SEQEND
  5
13E
330
13A
100
AcDbEntity
  8
Layer 1
 62
     7
420
 16777215
370
    35
  0
POLYLINE
  5
13F
330
1F
100
AcDbEntity
  8
Layer 1
 62
     7
420
 16777215
370
    35
100
AcDb2dPolyline
 66
     1
 10
0.0
 20
0.0
 30
0.0
  0
VERTEX
  5
140
330
13F
100
AcDbEntity
  8
Layer 1
 62
     7
420
 16777215
370
    35
100
AcDbVertex
100
AcDb2dVertex
 10
653.9521678589587
 20
-274.0902472154813
 30
0.0
  0
VERTEX
  5
141
330
13F
100
AcDbEntity
  8
Layer 1
 62
     7
420
 16777215
370
    35
100
AcDbVertex
100
AcDb2dVertex
 10
743.5212667627451
 20
-274.0902472154813
 30
0.0
  0
SEQEND
  5
142
330
13F
100
AcDbEntity
  8
Layer 1
 62
     7
420
 16777215
370
    35
  0
POLYLINE
  5
143
330
1F
100
AcDbEntity
  8
Layer 1
 62
     7
420
 16777215
370
    35
100
AcDb2dPolyline
 66
     1
 10
0.0
 20
0.0
 30
0.0
  0
VERTEX
  5
144
330
143
100
AcDbEntity
  8
Layer 1
 62
     7
420
 16777215
370
    35
100
AcDbVertex
100
AcDb2dVertex
 10
641.4804463545705
 20
-270.6888817295934
 30
0.0
  0
VERTEX
  5
145
330
143
100
AcDbEntity
  8
Layer 1
 62
     7
420
 16777215
370
    35
100
AcDbVertex
100
AcDb2dVertex
 10
755.4259738791377
 20
-270.6888817295959
 30
0.0
  0
SEQEND
  5
146
330
143
100
AcDbEntity
  8
Layer 1
 62
     7
420
 16777215
370
    35
  0
POLYLINE
  5
147
330
1F
100
AcDbEntity
  8
Layer 1
 62
     7
420
 16777215
370
    35
100
AcDb2dPolyline
 66
     1
 10
0.0
 20
0.0
 30
0.0
  0
VERTEX
  5
148
330
147
100
AcDbEntity
  8
Layer 1
 62
     7
420
 16777215
370
    35
100
AcDbVertex
100
AcDb2dVertex
 10
638.6459510882605
 20
-266.7206460241309
 30
0.0
  0
VERTEX
  5
149
330
147
100
AcDbEntity
  8
Layer 1
 62
     7
420
 16777215
370
    35
100
AcDbVertex
100
AcDb2dVertex
 10
641.4804463545705
 20
-270.6888817295934
 30
0.0
  0
VERTEX
  5
14A
330
147
100
AcDbEntity
  8
Layer 1
 62
     7
420
 16777215
370
    35
100
AcDbVertex
100
AcDb2dVertex
 10
653.9521678589587
 20
-274.0902472154813
 30
0.0
  0
SEQEND
  5
14B
330
147
100
AcDbEntity
  8
Layer 1
 62
     7
420
 16777215
370
    35
  0
POLYLINE
  5
14C
330
1F
100
AcDbEntity
  8
Layer 1
 62
     7
420
 16777215
370
    35
100
AcDb2dPolyline
 66
     1
 10
0.0
 20
0.0
 30
0.0
  0
VERTEX
  5
14D
330
14C
100
AcDbEntity
  8
Layer 1
 62
     7
420
 16777215
370
    35
100
AcDbVertex
100
AcDb2dVertex
 10
891.4804491461717
 20
-67.74105343661289
 30
0.0
  0
VERTEX
  5
14E
330
14C
100
AcDbEntity
  8
Layer 1
 62
     7
420
 16777215
370
    35
100
AcDbVertex
100
AcDb2dVertex
 10
891.4804491461749
 20
-88.14924635193111
 30
0.0
  0
VERTEX
  5
14F
330
14C
100
AcDbEntity
  8
Layer 1
 62
     7
420
 16777215
370
    35
100
AcDbVertex
100
AcDb2dVertex
 10
890.3465645386009
 20
-88.14924635193239
 30
0.0
  0
VERTEX
  5
150
330
14C
100
AcDbEntity
  8
Layer 1
 62
     7
420
 16777215
370
    35
100
AcDbVertex
100
AcDb2dVertex
 10
890.3465645386009
 20
-69.44173617955747
 30
0.0
  0
VERTEX
  5
151
330
14C
100
AcDbEntity
  8
Layer 1
 62
     7
420
 16777215
370
    35
100
AcDbVertex
100
AcDb2dVertex
 10
881.8432229080929
 20
-69.44173617955747
 30
0.0
  0
VERTEX
  5
152
330
14C
100
AcDbEntity
  8
Layer 1
 62
     7
420
 16777215
370
    35
100
AcDbVertex
100
AcDb2dVertex
 10
881.8432229080929
 20
-67.74105343661546
 30
0.0
  0
SEQEND
  5
153
330
14C
100
AcDbEntity
  8
Layer 1
 62
     7
420
 16777215
370
    35
  0
POLYLINE
  5
154
330
1F
100
AcDbEntity
  8
Layer 1
 62
     7
420
 16777215
370
    35
100
AcDb2dPolyline
 66
     1
 10
0.0
 20
0.0
 30
0.0
  0
VERTEX
  5
155
330
154
100
AcDbEntity
  8
Layer 1
 62
     7
420
 16777215
370
    35
100
AcDbVertex
100
AcDb2dVertex
 10
170.959061789396
 20
-67.74105343661803
 30
0.0
  0
VERTEX
  5
156
330
154
100
AcDbEntity
  8
Layer 1
 62
     7
420
 16777215
370
    35
100
AcDbVertex
100
AcDb2dVertex
 10
170.9590617893928
 20
-88.14924635193624
 30
0.0
  0
VERTEX
  5
157
330
154
100
AcDbEntity
  8
Layer 1
 62
     7
420
 16777215
370
    35
100
AcDbVertex
100
AcDb2dVertex
 10
172.0928022285497
 20
-88.14924635193496
 30
0.0
  0
VERTEX
  5
158
330
154
100
AcDbEntity
  8
Layer 1
 62
     7
420
 16777215
370
    35
100
AcDbVertex
100
AcDb2dVertex
 10
172.0928022285465
 20
-69.44173617956004
 30
0.0
  0
VERTEX
  5
159
330
154
100
AcDbEntity
  8
Layer 1
 62
     7
420
 16777215
370
    35
100
AcDbVertex
100
AcDb2dVertex
 10
181.1630861628382
 20
-69.44173617955875
 30
0.0
  0
VERTEX
  5
15A
330
154
100
AcDbEntity
  8
Layer 1
 62
     7
420
 16777215
370
    35
100
AcDbVertex
100
AcDb2dVertex
 10
181.1630861628407
 20
-67.74105343661546
 30
0.0
  0
SEQEND
  5
15B
330
154
100
AcDbEntity
  8
Layer 1
 62
     7
420
 16777215
370
    35
  0
POLYLINE
  5
15C
330
1F
100
AcDbEntity
  8
Layer 1
 62
     7
420
 16777215
370
    35
100
AcDb2dPolyline
 66
     1
 10
0.0
 20
0.0
 30
0.0
  0
VERTEX
  5
15D
330
15C
100
AcDbEntity
  8
Layer 1
 62
     7
420
 16777215
370
    35
100
AcDbVertex
100
AcDb2dVertex
 10
289.7232024599352
 20
444.069084780794
 30
0.0
  0
VERTEX
  5
15E
330
15C
100
AcDbEntity
  8
Layer 1
 62
     7
420
 16777215
370
    35
100
AcDbVertex
100
AcDb2dVertex
 10
290.8569428990889
 20
454.8400514580293
 30
0.0
  0
VERTEX
  5
15F
330
15C
100
AcDbEntity
  8
Layer 1
 62
     7
420
 16777215
370
    35
100
AcDbVertex
100
AcDb2dVertex
 10
294.2583083849787
 20
464.4772056118991
 30
0.0
  0
VERTEX
  5
160
330
15C
100
AcDbEntity
  8
Layer 1
 62
     7
420
 16777215
370
    35
100
AcDbVertex
100
AcDb2dVertex
 10
299.360356613806
 20
473.5474895461944
 30
0.0
  0
VERTEX
  5
161
330
15C
100
AcDbEntity
  8
Layer 1
 62
     7
420
 16777215
370
    35
100
AcDbVertex
100
AcDb2dVertex
 10
306.7299578051563
 20
480.9170907375454
 30
0.0
  0
VERTEX
  5
162
330
15C
100
AcDbEntity
  8
Layer 1
 62
     7
420
 16777215
370
    35
100
AcDbVertex
100
AcDb2dVertex
 10
315.8002417394583
 20
486.019138966374
 30
0.0
  0
VERTEX
  5
163
330
15C
100
AcDbEntity
  8
Layer 1
 62
     7
420
 16777215
370
    35
100
AcDbVertex
100
AcDb2dVertex
 10
325.4374679775345
 20
489.4205044522622
 30
0.0
  0
VERTEX
  5
164
330
15C
100
AcDbEntity
  8
Layer 1
 62
     7
420
 16777215
370
    35
100
AcDbVertex
100
AcDb2dVertex
 10
336.2084346547708
 20
490.5543169756276
 30
0.0
  0
VERTEX
  5
165
330
15C
100
AcDbEntity
  8
Layer 1
 62
     7
420
 16777215
370
    35
100
AcDbVertex
100
AcDb2dVertex
 10
346.4125311124305
 20
489.4205044522622
 30
0.0
  0
VERTEX
  5
166
330
15C
100
AcDbEntity
  8
Layer 1
 62
     7
420
 16777215
370
    35
100
AcDbVertex
100
AcDb2dVertex
 10
356.0496852663032
 20
486.0191389663775
 30
0.0
  0
VERTEX
  5
167
330
15C
100
AcDbEntity
  8
Layer 1
 62
     7
420
 16777215
370
    35
100
AcDbVertex
100
AcDb2dVertex
 10
365.1199692005988
 20
480.9170907375454
 30
0.0
  0
VERTEX
  5
168
330
15C
100
AcDbEntity
  8
Layer 1
 62
     7
420
 16777215
370
    35
100
AcDbVertex
100
AcDb2dVertex
 10
372.4895703919498
 20
473.5474895461944
 30
0.0
  0
VERTEX
  5
169
330
15C
100
AcDbEntity
  8
Layer 1
 62
     7
420
 16777215
370
    35
100
AcDbVertex
100
AcDb2dVertex
 10
377.5916907049901
 20
464.4772056118991
 30
0.0
  0
VERTEX
  5
16A
330
15C
100
AcDbEntity
  8
Layer 1
 62
     7
420
 16777215
370
    35
100
AcDbVertex
100
AcDb2dVertex
 10
381.55992641045
 20
454.8400514580293
 30
0.0
  0
VERTEX
  5
16B
330
15C
100
AcDbEntity
  8
Layer 1
 62
     7
420
 16777215
370
    35
100
AcDbVertex
100
AcDb2dVertex
 10
382.693666849607
 20
444.069084780794
 30
0.0
  0
VERTEX
  5
16C
330
15C
100
AcDbEntity
  8
Layer 1
 62
     7
420
 16777215
370
    35
100
AcDbVertex
100
AcDb2dVertex
 10
381.5599264104533
 20
433.8649883231333
 30
0.0
  0
VERTEX
  5
16D
330
15C
100
AcDbEntity
  8
Layer 1
 62
     7
420
 16777215
370
    35
100
AcDbVertex
100
AcDb2dVertex
 10
377.5916907049831
 20
424.227762085051
 30
0.0
  0
VERTEX
  5
16E
330
15C
100
AcDbEntity
  8
Layer 1
 62
     7
420
 16777215
370
    35
100
AcDbVertex
100
AcDb2dVertex
 10
372.489570391946
 20
415.1574781507561
 30
0.0
  0
VERTEX
  5
16F
330
15C
100
AcDbEntity
  8
Layer 1
 62
     7
420
 16777215
370
    35
100
AcDbVertex
100
AcDb2dVertex
 10
365.1199692005949
 20
407.7878769594051
 30
0.0
  0
VERTEX
  5
170
330
15C
100
AcDbEntity
  8
Layer 1
 62
     7
420
 16777215
370
    35
100
AcDbVertex
100
AcDb2dVertex
 10
356.0496852663032
 20
402.6858287305727
 30
0.0
  0
VERTEX
  5
171
330
15C
100
AcDbEntity
  8
Layer 1
 62
     7
420
 16777215
370
    35
100
AcDbVertex
100
AcDb2dVertex
 10
346.4125311124324
 20
398.7175930251099
 30
0.0
  0
VERTEX
  5
172
330
15C
100
AcDbEntity
  8
Layer 1
 62
     7
420
 16777215
370
    35
100
AcDbVertex
100
AcDb2dVertex
 10
336.208434654774
 20
397.583780501748
 30
0.0
  0
VERTEX
  5
173
330
15C
100
AcDbEntity
  8
Layer 1
 62
     7
420
 16777215
370
    35
100
AcDbVertex
100
AcDb2dVertex
 10
325.4374679775332
 20
398.7175930251134
 30
0.0
  0
VERTEX
  5
174
330
15C
100
AcDbEntity
  8
Layer 1
 62
     7
420
 16777215
370
    35
100
AcDbVertex
100
AcDb2dVertex
 10
315.8002417394525
 20
402.6858287305765
 30
0.0
  0
VERTEX
  5
175
330
15C
100
AcDbEntity
  8
Layer 1
 62
     7
420
 16777215
370
    35
100
AcDbVertex
100
AcDb2dVertex
 10
306.7299578051608
 20
407.7878769594051
 30
0.0
  0
VERTEX
  5
176
330
15C
100
AcDbEntity
  8
Layer 1
 62
     7
420
 16777215
370
    35
100
AcDbVertex
100
AcDb2dVertex
 10
299.3603566138092
 20
415.1574781507593
 30
0.0
  0
VERTEX
  5
177
330
15C
100
AcDbEntity
  8
Layer 1
 62
     7
420
 16777215
370
    35
100
AcDbVertex
100
AcDb2dVertex
 10
294.2583083849742
 20
424.227762085051
 30
0.0
  0
VERTEX
  5
178
330
15C
100
AcDbEntity
  8
Layer 1
 62
     7
420
 16777215
370
    35
100
AcDbVertex
100
AcDb2dVertex
 10
290.856942899096
 20
433.8649883231333
 30
0.0
  0
VERTEX
  5
179
330
15C
100
AcDbEntity
  8
Layer 1
 62
     7
420
 16777215
370
    35
100
AcDbVertex
100
AcDb2dVertex
 10
289.7232024599352
 20
444.069084780794
 30
0.0
  0
SEQEND
  5
17A
330
15C
100
AcDbEntity
  8
Layer 1
 62
     7
420
 16777215
370
    35
  0
POLYLINE
  5
17B
330
1F
100
AcDbEntity
  8
Layer 1
 62
     7
420
 16777215
370
    35
100
AcDb2dPolyline
 66
     1
 10
0.0
 20
0.0
 30
0.0
  0
VERTEX
  5
17C
330
17B
100
AcDbEntity
  8
Layer 1
 62
     7
420
 16777215
370
    35
100
AcDbVertex
100
AcDb2dVertex
 10
279.519106002278
 20
444.069084780794
 30
0.0
  0
VERTEX
  5
17D
330
17B
100
AcDbEntity
  8
Layer 1
 62
     7
420
 16777215
370
    35
100
AcDbVertex
100
AcDb2dVertex
 10
280.6529185256409
 20
455.4069216776078
 30
0.0
  0
VERTEX
  5
17E
330
17B
100
AcDbEntity
  8
Layer 1
 62
     7
420
 16777215
370
    35
100
AcDbVertex
100
AcDb2dVertex
 10
283.4873417077418
 20
466.1778883548434
 30
0.0
  0
VERTEX
  5
17F
330
17B
100
AcDbEntity
  8
Layer 1
 62
     7
420
 16777215
370
    35
100
AcDbVertex
100
AcDb2dVertex
 10
289.156260156145
 20
475.8151145929257
 30
0.0
  0
VERTEX
  5
180
330
17B
100
AcDbEntity
  8
Layer 1
 62
     7
420
 16777215
370
    35
100
AcDbVertex
100
AcDb2dVertex
 10
295.958991127922
 20
484.3184562234335
 30
0.0
  0
VERTEX
  5
181
330
17B
100
AcDbEntity
  8
Layer 1
 62
     7
420
 16777215
370
    35
100
AcDbVertex
100
AcDb2dVertex
 10
304.4624048426372
 20
491.1211871952025
 30
0.0
  0
VERTEX
  5
182
330
17B
100
AcDbEntity
  8
Layer 1
 62
     7
420
 16777215
370
    35
100
AcDbVertex
100
AcDb2dVertex
 10
314.0996310807159
 20
496.7901056436131
 30
0.0
  0
VERTEX
  5
183
330
17B
100
AcDbEntity
  8
Layer 1
 62
     7
420
 16777215
370
    35
100
AcDbVertex
100
AcDb2dVertex
 10
324.8705977579586
 20
499.624600909919
 30
0.0
  0
VERTEX
  5
184
330
17B
100
AcDbEntity
  8
Layer 1
 62
     7
420
 16777215
370
    35
100
AcDbVertex
100
AcDb2dVertex
 10
336.2084346547708
 20
500.7584134332848
 30
0.0
  0
VERTEX
  5
185
330
17B
100
AcDbEntity
  8
Layer 1
 62
     7
420
 16777215
370
    35
100
AcDbVertex
100
AcDb2dVertex
 10
346.9794013320122
 20
499.6246009099225
 30
0.0
  0
VERTEX
  5
186
330
17B
100
AcDbEntity
  8
Layer 1
 62
     7
420
 16777215
370
    35
100
AcDbVertex
100
AcDb2dVertex
 10
357.7503680092478
 20
496.7901056436131
 30
0.0
  0
VERTEX
  5
187
330
17B
100
AcDbEntity
  8
Layer 1
 62
     7
420
 16777215
370
    35
100
AcDbVertex
100
AcDb2dVertex
 10
367.3875942473259
 20
491.1211871952025
 30
0.0
  0
VERTEX
  5
188
330
17B
100
AcDbEntity
  8
Layer 1
 62
     7
420
 16777215
370
    35
100
AcDbVertex
100
AcDb2dVertex
 10
375.8909358778306
 20
484.3184562234335
 30
0.0
  0
VERTEX
  5
189
330
17B
100
AcDbEntity
  8
Layer 1
 62
     7
420
 16777215
370
    35
100
AcDbVertex
100
AcDb2dVertex
 10
383.2605370691854
 20
475.8151145929257
 30
0.0
  0
VERTEX
  5
18A
330
17B
100
AcDbEntity
  8
Layer 1
 62
     7
420
 16777215
370
    35
100
AcDbVertex
100
AcDb2dVertex
 10
388.3626573822226
 20
466.1778883548434
 30
0.0
  0
VERTEX
  5
18B
330
17B
100
AcDbEntity
  8
Layer 1
 62
     7
420
 16777215
370
    35
100
AcDbVertex
100
AcDb2dVertex
 10
391.197152648532
 20
455.4069216776078
 30
0.0
  0
VERTEX
  5
18C
330
17B
100
AcDbEntity
  8
Layer 1
 62
     7
420
 16777215
370
    35
100
AcDbVertex
100
AcDb2dVertex
 10
392.3308930876889
 20
444.069084780794
 30
0.0
  0
VERTEX
  5
18D
330
17B
100
AcDbEntity
  8
Layer 1
 62
     7
420
 16777215
370
    35
100
AcDbVertex
100
AcDb2dVertex
 10
391.1971526485352
 20
433.2981181035548
 30
0.0
  0
VERTEX
  5
18E
330
17B
100
AcDbEntity
  8
Layer 1
 62
     7
420
 16777215
370
    35
100
AcDbVertex
100
AcDb2dVertex
 10
388.3626573822226
 20
422.5271514263156
 30
0.0
  0
VERTEX
  5
18F
330
17B
100
AcDbEntity
  8
Layer 1
 62
     7
420
 16777215
370
    35
100
AcDbVertex
100
AcDb2dVertex
 10
383.2605370691854
 20
412.8899251882334
 30
0.0
  0
VERTEX
  5
190
330
17B
100
AcDbEntity
  8
Layer 1
 62
     7
420
 16777215
370
    35
100
AcDbVertex
100
AcDb2dVertex
 10
375.8909358778338
 20
404.3865114735205
 30
0.0
  0
VERTEX
  5
191
330
17B
100
AcDbEntity
  8
Layer 1
 62
     7
420
 16777215
370
    35
100
AcDbVertex
100
AcDb2dVertex
 10
367.3875942473298
 20
397.0169102821695
 30
0.0
  0
VERTEX
  5
192
330
17B
100
AcDbEntity
  8
Layer 1
 62
     7
420
 16777215
370
    35
100
AcDbVertex
100
AcDb2dVertex
 10
357.7503680092478
 20
391.9148620533409
 30
0.0
  0
VERTEX
  5
193
330
17B
100
AcDbEntity
  8
Layer 1
 62
     7
420
 16777215
370
    35
100
AcDbVertex
100
AcDb2dVertex
 10
346.9794013320122
 20
389.0804388712401
 30
0.0
  0
VERTEX
  5
194
330
17B
100
AcDbEntity
  8
Layer 1
 62
     7
420
 16777215
370
    35
100
AcDbVertex
100
AcDb2dVertex
 10
336.2084346547714
 20
387.9466263478746
 30
0.0
  0
VERTEX
  5
195
330
17B
100
AcDbEntity
  8
Layer 1
 62
     7
420
 16777215
370
    35
100
AcDbVertex
100
AcDb2dVertex
 10
324.8705977579592
 20
389.0804388712401
 30
0.0
  0
VERTEX
  5
196
330
17B
100
AcDbEntity
  8
Layer 1
 62
     7
420
 16777215
370
    35
100
AcDbVertex
100
AcDb2dVertex
 10
314.0996310807172
 20
391.9148620533374
 30
0.0
  0
VERTEX
  5
197
330
17B
100
AcDbEntity
  8
Layer 1
 62
     7
420
 16777215
370
    35
100
AcDbVertex
100
AcDb2dVertex
 10
304.4624048426385
 20
397.0169102821695
 30
0.0
  0
VERTEX
  5
198
330
17B
100
AcDbEntity
  8
Layer 1
 62
     7
420
 16777215
370
    35
100
AcDbVertex
100
AcDb2dVertex
 10
295.9589911279201
 20
404.3865114735205
 30
0.0
  0
VERTEX
  5
199
330
17B
100
AcDbEntity
  8
Layer 1
 62
     7
420
 16777215
370
    35
100
AcDbVertex
100
AcDb2dVertex
 10
289.1562601561488
 20
412.8899251882369
 30
0.0
  0
VERTEX
  5
19A
330
17B
100
AcDbEntity
  8
Layer 1
 62
     7
420
 16777215
370
    35
100
AcDbVertex
100
AcDb2dVertex
 10
283.4873417077405
 20
422.5271514263156
 30
0.0
  0
VERTEX
  5
19B
330
17B
100
AcDbEntity
  8
Layer 1
 62
     7
420
 16777215
370
    35
100
AcDbVertex
100
AcDb2dVertex
 10
280.6529185256467
 20
433.2981181035548
 30
0.0
  0
VERTEX
  5
19C
330
17B
100
AcDbEntity
  8
Layer 1
 62
     7
420
 16777215
370
    35
100
AcDbVertex
100
AcDb2dVertex
 10
279.519106002278
 20
444.069084780794
 30
0.0
  0
SEQEND
  5
19D
330
17B
100
AcDbEntity
  8
Layer 1
 62
     7
420
 16777215
370
    35
  0
POLYLINE
  5
19E
330
1F
100
AcDbEntity
  8
Layer 1
 62
     7
420
 16777215
370
    35
100
AcDb2dPolyline
 66
     1
 10
0.0
 20
0.0
 30
0.0
  0
VERTEX
  5
19F
330
19E
100
AcDbEntity
  8
Layer 1
 62
     7
420
 16777215
370
    35
100
AcDbVertex
100
AcDb2dVertex
 10
201.2878439953089
 20
174.2278674197599
 30
0.0
  0
VERTEX
  5
1A0
330
19E
100
AcDbEntity
  8
Layer 1
 62
     7
420
 16777215
370
    35
100
AcDbVertex
100
AcDb2dVertex
 10
310.6982655948345
 20
393.6155447962848
 30
0.0
  0
SEQEND
  5
1A1
330
19E
100
AcDbEntity
  8
Layer 1
 62
     7
420
 16777215
370
    35
  0
POLYLINE
  5
1A2
330
1F
100
AcDbEntity
  8
Layer 1
 62
     7
420
 16777215
370
    35
100
AcDb2dPolyline
 66
     1
 10
0.0
 20
0.0
 30
0.0
  0
VERTEX
  5
1A3
330
1A2
100
AcDbEntity
  8
Layer 1
 62
     7
420
 16777215
370
    35
100
AcDbVertex
100
AcDb2dVertex
 10
291.4238852028843
 20
479.2164800788136
 30
0.0
  0
VERTEX
  5
1A4
330
1A2
100
AcDbEntity
  8
Layer 1
 62
     7
420
 16777215
370
    35
100
AcDbVertex
100
AcDb2dVertex
 10
201.2878439953057
 20
549.5111985906408
 30
0.0
  0
SEQEND
  5
1A5
330
1A2
100
AcDbEntity
  8
Layer 1
 62
     7
420
 16777215
370
    35
  0
POLYLINE
  5
1A6
330
1F
100
AcDbEntity
  8
Layer 1
 62
     7
420
 16777215
370
    35
100
AcDb2dPolyline
 66
     1
 10
0.0
 20
0.0
 30
0.0
  0
VERTEX
  5
1A7
330
1A6
100
AcDbEntity
  8
Layer 1
 62
     7
420
 16777215
370
    35
100
AcDbVertex
100
AcDb2dVertex
 10
471.1290253142359
 20
174.2278674197595
 30
0.0
  0
VERTEX
  5
1A8
330
1A6
100
AcDbEntity
  8
Layer 1
 62
     7
420
 16777215
370
    35
100
AcDbVertex
100
AcDb2dVertex
 10
361.1517334951319
 20
393.6155447962848
 30
0.0
  0
SEQEND
  5
1A9
330
1A6
100
AcDbEntity
  8
Layer 1
 62
     7
420
 16777215
370
    35
  0
POLYLINE
  5
1AA
330
1F
100
AcDbEntity
  8
Layer 1
 62
     7
420
 16777215
370
    35
100
AcDb2dPolyline
 66
     1
 10
0.0
 20
0.0
 30
0.0
  0
VERTEX
  5
1AB
330
1AA
100
AcDbEntity
  8
Layer 1
 62
     7
420
 16777215
370
    35
100
AcDbVertex
100
AcDb2dVertex
 10
380.4260418028754
 20
479.21648007881
 30
0.0
  0
VERTEX
  5
1AC
330
1AA
100
AcDbEntity
  8
Layer 1
 62
     7
420
 16777215
370
    35
100
AcDbVertex
100
AcDb2dVertex
 10
471.1290253142359
 20
549.5111985906408
 30
0.0
  0
SEQEND
  5
1AD
330
1AA
100
AcDbEntity
  8
Layer 1
 62
     7
420
 16777215
370
    35
  0
POLYLINE
  5
1AE
330
1F
100
AcDbEntity
  8
Layer 1
 62
     7
420
 16777215
370
    35
100
AcDb2dPolyline
 66
     1
 10
0.0
 20
0.0
 30
0.0
  0
VERTEX
  5
1AF
330
1AE
100
AcDbEntity
  8
Layer 1
 62
     7
420
 16777215
370
    35
100
AcDbVertex
100
AcDb2dVertex
 10
520.1653176386525
 20
-250.8476311180641
 30
0.0
  0
VERTEX
  5
1B0
330
1AE
100
AcDbEntity
  8
Layer 1
 62
     7
420
 16777215
370
    35
100
AcDbVertex
100
AcDb2dVertex
 10
520.1653176386525
 20
-67.74105343661289
 30
0.0
  0
SEQEND
  5
1B1
330
1AE
100
AcDbEntity
  8
Layer 1
 62
     7
420
 16777215
370
    35
  0
POLYLINE
  5
1B2
330
1F
100
AcDbEntity
  8
Layer 1
 62
     7
420
 16777215
370
    35
100
AcDb2dPolyline
 66
     1
 10
0.0
 20
0.0
 30
0.0
  0
VERTEX
  5
1B3
330
1B2
100
AcDbEntity
  8
Layer 1
 62
     7
420
 16777215
370
    35
100
AcDbVertex
100
AcDb2dVertex
 10
486.1516627797891
 20
-66.60731299745983
 30
0.0
  0
VERTEX
  5
1B4
330
1B2
100
AcDbEntity
  8
Layer 1
 62
     7
420
 16777215
370
    35
100
AcDbVertex
100
AcDb2dVertex
 10
486.1516627797891
 20
-250.8476311180654
 30
0.0
  0
VERTEX
  5
1B5
330
1B2
100
AcDbEntity
  8
Layer 1
 62
     7
420
 16777215
370
    35
100
AcDbVertex
100
AcDb2dVertex
 10
485.0179223406323
 20
-256.516549566475
 30
0.0
  0
VERTEX
  5
1B6
330
1B2
100
AcDbEntity
  8
Layer 1
 62
     7
420
 16777215
370
    35
100
AcDbVertex
100
AcDb2dVertex
 10
481.6165568547476
 20
-261.0516554915147
 30
0.0
  0
VERTEX
  5
1B7
330
1B2
100
AcDbEntity
  8
Layer 1
 62
     7
420
 16777215
370
    35
100
AcDbVertex
100
AcDb2dVertex
 10
477.0814509297028
 20
-264.4530209773987
 30
0.0
  0
VERTEX
  5
1B8
330
1B2
100
AcDbEntity
  8
Layer 1
 62
     7
420
 16777215
370
    35
100
AcDbVertex
100
AcDb2dVertex
 10
471.412460397084
 20
-265.5868335007673
 30
0.0
  0
SEQEND
  5
1B9
330
1B2
100
AcDbEntity
  8
Layer 1
 62
     7
420
 16777215
370
    35
  0
POLYLINE
  5
1BA
330
1F
100
AcDbEntity
  8
Layer 1
 62
     7
420
 16777215
370
    35
100
AcDb2dPolyline
 66
     1
 10
0.0
 20
0.0
 30
0.0
  0
VERTEX
  5
1BB
330
1BA
100
AcDbEntity
  8
Layer 1
 62
     7
420
 16777215
370
    35
100
AcDbVertex
100
AcDb2dVertex
 10
487.2855473873639
 20
-67.74105343661418
 30
0.0
  0
VERTEX
  5
1BC
330
1BA
100
AcDbEntity
  8
Layer 1
 62
     7
420
 16777215
370
    35
100
AcDbVertex
100
AcDb2dVertex
 10
487.2855473873639
 20
-250.8476311180654
 30
0.0
  0
VERTEX
  5
1BD
330
1BA
100
AcDbEntity
  8
Layer 1
 62
     7
420
 16777215
370
    35
100
AcDbVertex
100
AcDb2dVertex
 10
486.1516627797891
 20
-257.0834197860522
 30
0.0
  0
VERTEX
  5
1BE
330
1BA
100
AcDbEntity
  8
Layer 1
 62
     7
420
 16777215
370
    35
100
AcDbVertex
100
AcDb2dVertex
 10
482.7502972939045
 20
-262.1854680148833
 30
0.0
  0
VERTEX
  5
1BF
330
1BA
100
AcDbEntity
  8
Layer 1
 62
     7
420
 16777215
370
    35
100
AcDbVertex
100
AcDb2dVertex
 10
477.648321149278
 20
-265.5868335007635
 30
0.0
  0
VERTEX
  5
1C0
330
1BA
100
AcDbEntity
  8
Layer 1
 62
     7
420
 16777215
370
    35
100
AcDbVertex
100
AcDb2dVertex
 10
471.4124603970872
 20
-266.7206460241335
 30
0.0
  0
SEQEND
  5
1C1
330
1BA
100
AcDbEntity
  8
Layer 1
 62
     7
420
 16777215
370
    35
  0
POLYLINE
  5
1C2
330
1F
100
AcDbEntity
  8
Layer 1
 62
     7
420
 16777215
370
    18
100
AcDb2dPolyline
 66
     1
 10
0.0
 20
0.0
 30
0.0
  0
VERTEX
  5
1C3
330
1C2
100
AcDbEntity
  8
Layer 1
 62
     7
420
 16777215
370
    18
100
AcDbVertex
100
AcDb2dVertex
 10
520.1653176386525
 20
-250.8476311180641
 30
0.0
  0
VERTEX
  5
1C4
330
1C2
100
AcDbEntity
  8
Layer 1
 62
     7
420
 16777215
370
    18
100
AcDbVertex
100
AcDb2dVertex
 10
487.2855473873639
 20
-250.8476311180654
 30
0.0
  0
VERTEX
  5
1C5
330
1C2
100
AcDbEntity
  8
Layer 1
 62
     7
420
 16777215
370
    18
100
AcDbVertex
100
AcDb2dVertex
 10
487.2855473873639
 20
-231.0063084223256
 30
0.0
  0
VERTEX
  5
1C6
330
1C2
100
AcDbEntity
  8
Layer 1
 62
     7
420
 16777215
370
    18
100
AcDbVertex
100
AcDb2dVertex
 10
520.1653176386525
 20
-231.0063084223231
 30
0.0
  0
VERTEX
  5
1C7
330
1C2
100
AcDbEntity
  8
Layer 1
 62
     7
420
 16777215
370
    18
100
AcDbVertex
100
AcDb2dVertex
 10
520.1653176386525
 20
-250.8476311180641
 30
0.0
  0
SEQEND
  5
1C8
330
1C2
100
AcDbEntity
  8
Layer 1
 62
     7
420
 16777215
370
    18
  0
POLYLINE
  5
1C9
330
1F
100
AcDbEntity
  8
Layer 1
 62
     7
420
 16777215
370
    18
100
AcDb2dPolyline
 66
     1
 10
0.0
 20
0.0
 30
0.0
  0
VERTEX
  5
1CA
330
1C9
100
AcDbEntity
  8
Layer 1
 62
     7
420
 16777215
370
    18
100
AcDbVertex
100
AcDb2dVertex
 10
171.809439206354
 20
-140.3033969790452
 30
0.0
  0
VERTEX
  5
1CB
330
1C9
100
AcDbEntity
  8
Layer 1
 62
     7
420
 16777215
370
    18
100
AcDbVertex
100
AcDb2dVertex
 10
184.8478867619034
 20
-140.3033969796292
 30
0.0
  0
SEQEND
  5
1CC
330
1C9
100
AcDbEntity
  8
Layer 1
 62
     7
420
 16777215
370
    18
  0
POLYLINE
  5
1CD
330
1F
100
AcDbEntity
  8
Layer 1
 62
     7
420
 16777215
370
    18
100
AcDb2dPolyline
 66
     1
 10
0.0
 20
0.0
 30
0.0
  0
VERTEX
  5
1CE
330
1CD
100
AcDbEntity
  8
Layer 1
 62
     7
420
 16777215
370
    18
100
AcDbVertex
100
AcDb2dVertex
 10
159.3382874514637
 20
-140.3032132280421
 30
0.0
  0
VERTEX
  5
1CF
330
1CD
100
AcDbEntity
  8
Layer 1
 62
     7
420
 16777215
370
    18
100
AcDbVertex
100
AcDb2dVertex
 10
125.3347515434344
 20
-140.3032132274838
 30
0.0
  0
SEQEND
  5
1D0
330
1CD
100
AcDbEntity
  8
Layer 1
 62
     7
420
 16777215
370
    18
  0
POLYLINE
  5
1D1
330
1F
100
AcDbEntity
  8
Layer 1
 62
     7
420
 16777215
370
    18
100
AcDb2dPolyline
 66
     1
 10
0.0
 20
0.0
 30
0.0
  0
VERTEX
  5
1D2
330
1D1
100
AcDbEntity
  8
Layer 1
 62
     7
420
 16777215
370
    18
100
AcDbVertex
100
AcDb2dVertex
 10
184.847886764297
 20
-87.01543381302176
 30
0.0
  0
VERTEX
  5
1D3
330
1D1
100
AcDbEntity
  8
Layer 1
 62
     7
420
 16777215
370
    18
100
AcDbVertex
100
AcDb2dVertex
 10
184.8478867616243
 20
-146.5392577318239
 30
0.0
  0
SEQEND
  5
1D4
330
1D1
100
AcDbEntity
  8
Layer 1
 62
     7
420
 16777215
370
    18
  0
POLYLINE
  5
1D5
330
1F
100
AcDbEntity
  8
Layer 1
 62
     7
420
 16777215
370
    18
100
AcDb2dPolyline
 66
     1
 10
0.0
 20
0.0
 30
0.0
  0
VERTEX
  5
1D6
330
1D5
100
AcDbEntity
  8
Layer 1
 62
     7
420
 16777215
370
    18
100
AcDbVertex
100
AcDb2dVertex
 10
171.8094392088746
 20
-84.18101063033761
 30
0.0
  0
VERTEX
  5
1D7
330
1D5
100
AcDbEntity
  8
Layer 1
 62
     7
420
 16777215
370
    18
100
AcDbVertex
100
AcDb2dVertex
 10
171.8094392060755
 20
-146.53925773124
 30
0.0
  0
SEQEND
  5
1D8
330
1D5
100
AcDbEntity
  8
Layer 1
 62
     7
420
 16777215
370
    18
  0
POLYLINE
  5
1D9
330
1F
100
AcDbEntity
  8
Layer 1
370
     0
100
AcDb2dPolyline
 66
     1
 10
0.0
 20
0.0
 30
0.0
  0
VERTEX
  5
1DA
330
1D9
100
AcDbEntity
  8
Layer 1
370
     0
100
AcDbVertex
100
AcDb2dVertex
 10
159.3377177020679
 20
-138.0358440159652
 30
0.0
  0
VERTEX
  5
1DB
330
1D9
100
AcDbEntity
  8
Layer 1
370
     0
100
AcDbVertex
100
AcDb2dVertex
 10
159.3377177018901
 20
-142.0040797214296
 30
0.0
  0
VERTEX
  5
1DC
330
1D9
100
AcDbEntity
  8
Layer 1
370
     0
100
AcDbVertex
100
AcDb2dVertex
 10
171.809439206354
 20
-140.3033969790452
 30
0.0
  0
VERTEX
  5
1DD
330
1D9
100
AcDbEntity
  8
Layer 1
370
     0
100
AcDbVertex
100
AcDb2dVertex
 10
159.3377177020679
 20
-138.0358440159652
 30
0.0
  0
SEQEND
  5
1DF
330
1D9
100
AcDbEntity
  8
Layer 1
370
     0
  0
HATCH
  5
1DE
330
1F
100
AcDbEntity
  8
Layer 1
 62
     7
420
 16777215
100
AcDbHatch
 10
0.0
 20
0.0
 30
0.0
210
0.0
220
0.0
230
1.0
  2
SOLID
 70
     1
 71
     0
 91
        1
 92
        1
 93
        3
 72
     1
 10
159.3377177020679
 20
-138.0358440159652
 11
159.3377177018901
 21
-142.0040797214296
 72
     1
 10
159.3377177018901
 20
-142.0040797214296
 11
171.809439206354
 21
-140.3033969790452
 72
     1
 10
171.809439206354
 20
-140.3033969790452
 11
159.3377177020679
 21
-138.0358440159652
 97
        0
 75
     0
 76
     1
 98
        0
  0
POLYLINE
  5
1E0
330
1F
100
AcDbEntity
  8
Layer 1
 62
     7
420
 16777215
370
    35
100
AcDb2dPolyline
 66
     1
 10
0.0
 20
0.0
 30
0.0
  0
VERTEX
  5
1E1
330
1E0
100
AcDbEntity
  8
Layer 1
 62
     7
420
 16777215
370
    35
100
AcDbVertex
100
AcDb2dVertex
 10
396.0156936564281
 20
-266.7206460241335
 30
0.0
  0
VERTEX
  5
1E2
330
1E0
100
AcDbEntity
  8
Layer 1
 62
     7
420
 16777215
370
    35
100
AcDbVertex
100
AcDb2dVertex
 10
393.1811983901148
 20
-270.6888817295946
 30
0.0
  0
VERTEX
  5
1E3
330
1E0
100
AcDbEntity
  8
Layer 1
 62
     7
420
 16777215
370
    35
100
AcDbVertex
100
AcDb2dVertex
 10
381.2764912737262
 20
-274.0902472154838
 30
0.0
  0
SEQEND
  5
1E4
330
1E0
100
AcDbEntity
  8
Layer 1
 62
     7
420
 16777215
370
    35
  0
POLYLINE
  5
1E5
330
1F
100
AcDbEntity
  8
Layer 1
 62
     7
420
 16777215
370
    35
100
AcDb2dPolyline
 66
     1
 10
0.0
 20
0.0
 30
0.0
  0
VERTEX
  5
1E6
330
1E5
100
AcDbEntity
  8
Layer 1
 62
     7
420
 16777215
370
    35
100
AcDbVertex
100
AcDb2dVertex
 10
291.1403779819435
 20
-274.0902472154851
 30
0.0
  0
VERTEX
  5
1E7
330
1E5
100
AcDbEntity
  8
Layer 1
 62
     7
420
 16777215
370
    35
100
AcDbVertex
100
AcDb2dVertex
 10
381.2764912737262
 20
-274.0902472154838
 30
0.0
  0
SEQEND
  5
1E8
330
1E5
100
AcDbEntity
  8
Layer 1
 62
     7
420
 16777215
370
    35
  0
POLYLINE
  5
1E9
330
1F
100
AcDbEntity
  8
Layer 1
 62
     7
420
 16777215
370
    35
100
AcDb2dPolyline
 66
     1
 10
0.0
 20
0.0
 30
0.0
  0
VERTEX
  5
1EA
330
1E9
100
AcDbEntity
  8
Layer 1
 62
     7
420
 16777215
370
    35
100
AcDbVertex
100
AcDb2dVertex
 10
279.2356708655522
 20
-270.6888817295959
 30
0.0
  0
VERTEX
  5
1EB
330
1E9
100
AcDbEntity
  8
Layer 1
 62
     7
420
 16777215
370
    35
100
AcDbVertex
100
AcDb2dVertex
 10
393.1811983901148
 20
-270.6888817295946
 30
0.0
  0
SEQEND
  5
1EC
330
1E9
100
AcDbEntity
  8
Layer 1
 62
     7
420
 16777215
370
    35
  0
POLYLINE
  5
1ED
330
1F
100
AcDbEntity
  8
Layer 1
 62
     7
420
 16777215
370
    35
100
AcDb2dPolyline
 66
     1
 10
0.0
 20
0.0
 30
0.0
  0
VERTEX
  5
1EE
330
1ED
100
AcDbEntity
  8
Layer 1
 62
     7
420
 16777215
370
    35
100
AcDbVertex
100
AcDb2dVertex
 10
276.4011755992415
 20
-266.7206460241335
 30
0.0
  0
VERTEX
  5
1EF
330
1ED
100
AcDbEntity
  8
Layer 1
 62
     7
420
 16777215
370
    35
100
AcDbVertex
100
AcDb2dVertex
 10
279.2356708655522
 20
-270.6888817295959
 30
0.0
  0
VERTEX
  5
1F0
330
1ED
100
AcDbEntity
  8
Layer 1
 62
     7
420
 16777215
370
    35
100
AcDbVertex
100
AcDb2dVertex
 10
291.1403779819435
 20
-274.0902472154851
 30
0.0
  0
SEQEND
  5
1F1
330
1ED
100
AcDbEntity
  8
Layer 1
 62
     7
420
 16777215
370
    35
  0
POLYLINE
  5
1F2
330
1F
100
AcDbEntity
  8
Layer 1
 62
     7
420
 16777215
370
    18
100
AcDb2dPolyline
 66
     1
 10
0.0
 20
0.0
 30
0.0
  0
VERTEX
  5
1F3
330
1F2
100
AcDbEntity
  8
Layer 1
 62
     7
420
 16777215
370
    18
100
AcDbVertex
100
AcDb2dVertex
 10
535.7548253776567
 20
564.2504730575552
 30
0.0
  0
VERTEX
  5
1F4
330
1F2
100
AcDbEntity
  8
Layer 1
 62
     7
420
 16777215
370
    18
100
AcDbVertex
100
AcDb2dVertex
 10
531.2197194526152
 20
564.2504730575514
 30
0.0
  0
SEQEND
  5
1F5
330
1F2
100
AcDbEntity
  8
Layer 1
 62
     7
420
 16777215
370
    18
  0
POLYLINE
  5
1F6
330
1F
100
AcDbEntity
  8
Layer 1
 62
     7
420
 16777215
370
    35
100
AcDb2dPolyline
 66
     1
 10
0.0
 20
0.0
 30
0.0
  0
VERTEX
  5
1F7
330
1F6
100
AcDbEntity
  8
Layer 1
 62
     7
420
 16777215
370
    35
100
AcDbVertex
100
AcDb2dVertex
 10
485.8682276969384
 20
601.6654213180901
 30
0.0
  0
VERTEX
  5
1F8
330
1F6
100
AcDbEntity
  8
Layer 1
 62
     7
420
 16777215
370
    35
100
AcDbVertex
100
AcDb2dVertex
 10
487.0021123045125
 20
607.3343397665006
 30
0.0
  0
VERTEX
  5
1F9
330
1F6
100
AcDbEntity
  8
Layer 1
 62
     7
420
 16777215
370
    35
100
AcDbVertex
100
AcDb2dVertex
 10
489.2695931828225
 20
611.8694456915457
 30
0.0
  0
VERTEX
  5
1FA
330
1F6
100
AcDbEntity
  8
Layer 1
 62
     7
420
 16777215
370
    35
100
AcDbVertex
100
AcDb2dVertex
 10
493.2378288882856
 20
615.8377534812174
 30
0.0
  0
VERTEX
  5
1FB
330
1F6
100
AcDbEntity
  8
Layer 1
 62
     7
420
 16777215
370
    35
100
AcDbVertex
100
AcDb2dVertex
 10
497.7730789817514
 20
618.6721766633183
 30
0.0
  0
VERTEX
  5
1FC
330
1F6
100
AcDbEntity
  8
Layer 1
 62
     7
420
 16777215
370
    35
100
AcDbVertex
100
AcDb2dVertex
 10
503.4419253459466
 20
619.2391189671052
 30
0.0
  0
VERTEX
  5
1FD
330
1F6
100
AcDbEntity
  8
Layer 1
 62
     7
420
 16777215
370
    35
100
AcDbVertex
100
AcDb2dVertex
 10
509.1109158785654
 20
618.6721766633183
 30
0.0
  0
VERTEX
  5
1FE
330
1F6
100
AcDbEntity
  8
Layer 1
 62
     7
420
 16777215
370
    35
100
AcDbVertex
100
AcDb2dVertex
 10
513.6460218036032
 20
615.8377534812174
 30
0.0
  0
VERTEX
  5
1FF
330
1F6
100
AcDbEntity
  8
Layer 1
 62
     7
420
 16777215
370
    35
100
AcDbVertex
100
AcDb2dVertex
 10
517.6142575090702
 20
611.8694456915422
 30
0.0
  0
VERTEX
  5
200
330
1F6
100
AcDbEntity
  8
Layer 1
 62
     7
420
 16777215
370
    35
100
AcDbVertex
100
AcDb2dVertex
 10
519.8818825558011
 20
607.3343397665042
 30
0.0
  0
VERTEX
  5
201
330
1F6
100
AcDbEntity
  8
Layer 1
 62
     7
420
 16777215
370
    35
100
AcDbVertex
100
AcDb2dVertex
 10
521.0156229949541
 20
601.6654213180939
 30
0.0
  0
VERTEX
  5
202
330
1F6
100
AcDbEntity
  8
Layer 1
 62
     7
420
 16777215
370
    35
100
AcDbVertex
100
AcDb2dVertex
 10
519.881882555805
 20
596.5633730892654
 30
0.0
  0
VERTEX
  5
203
330
1F6
100
AcDbEntity
  8
Layer 1
 62
     7
420
 16777215
370
    35
100
AcDbVertex
100
AcDb2dVertex
 10
517.6142575090734
 20
591.4613248604333
 30
0.0
  0
VERTEX
  5
204
330
1F6
100
AcDbEntity
  8
Layer 1
 62
     7
420
 16777215
370
    35
100
AcDbVertex
100
AcDb2dVertex
 10
513.6460218036032
 20
587.4930891549701
 30
0.0
  0
VERTEX
  5
205
330
1F6
100
AcDbEntity
  8
Layer 1
 62
     7
420
 16777215
370
    35
100
AcDbVertex
100
AcDb2dVertex
 10
509.1109158785623
 20
585.2254641082427
 30
0.0
  0
VERTEX
  5
206
330
1F6
100
AcDbEntity
  8
Layer 1
 62
     7
420
 16777215
370
    35
100
AcDbVertex
100
AcDb2dVertex
 10
503.4419253459466
 20
584.0917236690858
 30
0.0
  0
VERTEX
  5
207
330
1F6
100
AcDbEntity
  8
Layer 1
 62
     7
420
 16777215
370
    35
100
AcDbVertex
100
AcDb2dVertex
 10
497.7730789817481
 20
585.2254641082388
 30
0.0
  0
VERTEX
  5
208
330
1F6
100
AcDbEntity
  8
Layer 1
 62
     7
420
 16777215
370
    35
100
AcDbVertex
100
AcDb2dVertex
 10
493.2378288882856
 20
587.4930891549701
 30
0.0
  0
VERTEX
  5
209
330
1F6
100
AcDbEntity
  8
Layer 1
 62
     7
420
 16777215
370
    35
100
AcDbVertex
100
AcDb2dVertex
 10
489.2695931828225
 20
591.4613248604368
 30
0.0
  0
VERTEX
  5
20A
330
1F6
100
AcDbEntity
  8
Layer 1
 62
     7
420
 16777215
370
    35
100
AcDbVertex
100
AcDb2dVertex
 10
487.0021123045125
 20
596.5633730892654
 30
0.0
  0
VERTEX
  5
20B
330
1F6
100
AcDbEntity
  8
Layer 1
 62
     7
420
 16777215
370
    35
100
AcDbVertex
100
AcDb2dVertex
 10
485.8682276969384
 20
601.6654213180901
 30
0.0
  0
SEQEND
  5
20C
330
1F6
100
AcDbEntity
  8
Layer 1
 62
     7
420
 16777215
370
    35
  0
MTEXT
  5
20D
330
1F
100
AcDbEntity
  8
Layer 1
 62
     7
420
 16777215
100
AcDbMText
 10
79.27311128118
 20
334.9930468781421
 30
0.0
 40
20.06802144782316
 41
0.0
 46
0.0
 71
     7
 72
     1
  1
\fMyriad Pro|b0|i0|c0|p34;\W1;405
 11
6.123233995736766E-17
 21
1.0
 31
0.0
 73
     1
 44
1.0
  0
MTEXT
  5
20E
330
1F
100
AcDbEntity
  8
Layer 1
 62
     7
420
 16777215
100
AcDbMText
 10
125.3348561291481
 20
497.0883018416534
 30
0.0
 40
20.06802144782316
 41
0.0
 46
0.0
 71
     7
 72
     1
  1
\fMyriad Pro|b0|i0|c0|p34;\W1;195
 11
6.123233995736766E-17
 21
1.0
 31
0.0
 73
     1
 44
1.0
  0
MTEXT
  5
20F
330
1F
100
AcDbEntity
  8
Layer 1
 62
     7
420
 16777215
100
AcDbMText
 10
34.39501511455663
 20
334.9930468781421
 30
0.0
 40
20.06802144782316
 41
0.0
 46
0.0
 71
     7
 72
     1
  1
\fMyriad Pro|b0|i0|c0|p34;\W1;510
 11
6.123233995736766E-17
 21
1.0
 31
0.0
 73
     1
 44
1.0
  0
POLYLINE
  5
210
330
1F
100
AcDbEntity
  8
Layer 1
 62
     7
420
 16777215
370
    20
100
AcDb2dPolyline
 66
     1
 10
0.0
 20
0.0
 30
0.0
  0
VERTEX
  5
211
330
210
100
AcDbEntity
  8
Layer 1
 62
     7
420
 16777215
370
    20
100
AcDbVertex
100
AcDb2dVertex
 10
142.4108983395949
 20
639.080360564324
 30
0.0
  0
VERTEX
  5
212
330
210
100
AcDbEntity
  8
Layer 1
 62
     7
420
 16777215
370
    20
100
AcDbVertex
100
AcDb2dVertex
 10
16.04522000183358
 20
639.0803605726214
 30
0.0
  0
SEQEND
  5
213
330
210
100
AcDbEntity
  8
Layer 1
 62
     7
420
 16777215
370
    20
  0
POLYLINE
  5
214
330
1F
100
AcDbEntity
  8
Layer 1
 62
     7
420
 16777215
370
    20
100
AcDb2dPolyline
 66
     1
 10
0.0
 20
0.0
 30
0.0
  0
VERTEX
  5
215
330
214
100
AcDbEntity
  8
Layer 1
 62
     7
420
 16777215
370
    20
100
AcDbVertex
100
AcDb2dVertex
 10
142.4108983395949
 20
129.4432729129036
 30
0.0
  0
VERTEX
  5
216
330
214
100
AcDbEntity
  8
Layer 1
 62
     7
420
 16777215
370
    20
100
AcDbVertex
100
AcDb2dVertex
 10
16.04521997785874
 20
129.4432729197505
 30
0.0
  0
SEQEND
  5
217
330
214
100
AcDbEntity
  8
Layer 1
 62
     7
420
 16777215
370
    20
  0
POLYLINE
  5
218
330
1F
100
AcDbEntity
  8
Layer 1
 62
     7
420
 16777215
370
    20
100
AcDb2dPolyline
 66
     1
 10
0.0
 20
0.0
 30
0.0
  0
VERTEX
  5
219
330
218
100
AcDbEntity
  8
Layer 1
 62
     7
420
 16777215
370
    20
100
AcDbVertex
100
AcDb2dVertex
 10
142.4108983395949
 20
564.2504640427563
 30
0.0
  0
VERTEX
  5
21A
330
218
100
AcDbEntity
  8
Layer 1
 62
     7
420
 16777215
370
    20
100
AcDbVertex
100
AcDb2dVertex
 10
51.75948551592116
 20
564.2504640499353
 30
0.0
  0
SEQEND
  5
21B
330
218
100
AcDbEntity
  8
Layer 1
 62
     7
420
 16777215
370
    20
  0
POLYLINE
  5
21C
330
1F
100
AcDbEntity
  8
Layer 1
 62
     7
420
 16777215
370
    20
100
AcDb2dPolyline
 66
     1
 10
0.0
 20
0.0
 30
0.0
  0
VERTEX
  5
21D
330
21C
100
AcDbEntity
  8
Layer 1
 62
     7
420
 16777215
370
    20
100
AcDbVertex
100
AcDb2dVertex
 10
142.4108983395949
 20
441.3065971308012
 30
0.0
  0
VERTEX
  5
21E
330
21C
100
AcDbEntity
  8
Layer 1
 62
     7
420
 16777215
370
    20
100
AcDbVertex
100
AcDb2dVertex
 10
85.17895306926566
 20
441.3065971379802
 30
0.0
  0
SEQEND
  5
21F
330
21C
100
AcDbEntity
  8
Layer 1
 62
     7
420
 16777215
370
    20
  0
POLYLINE
  5
220
330
1F
100
AcDbEntity
  8
Layer 1
 62
     7
420
 16777215
370
    20
100
AcDb2dPolyline
 66
     1
 10
0.0
 20
0.0
 30
0.0
  0
VERTEX
  5
221
330
220
100
AcDbEntity
  8
Layer 1
 62
     7
420
 16777215
370
    20
100
AcDbVertex
100
AcDb2dVertex
 10
142.4108983395949
 20
159.4886199792948
 30
0.0
  0
VERTEX
  5
222
330
220
100
AcDbEntity
  8
Layer 1
 62
     7
420
 16777215
370
    20
100
AcDbVertex
100
AcDb2dVertex
 10
51.75948549685307
 20
159.488619987336
 30
0.0
  0
SEQEND
  5
223
330
220
100
AcDbEntity
  8
Layer 1
 62
     7
420
 16777215
370
    20
  0
INSERT
  5
225
330
1F
100
AcDbEntity
  8
Layer 1
100
AcDbBlockReference
  2
block 2
 10
0.0
 20
0.0
 30
0.0
  0
INSERT
  5
238
330
1F
100
AcDbEntity
  8
Layer 1
100
AcDbBlockReference
  2
block 4
 10
0.0
 20
0.0
 30
0.0
  0
INSERT
  5
24B
330
1F
100
AcDbEntity
  8
Layer 1
100
AcDbBlockReference
  2
block 6
 10
0.0
 20
0.0
 30
0.0
  0
INSERT
  5
25E
330
1F
100
AcDbEntity
  8
Layer 1
100
AcDbBlockReference
  2
block 8
 10
0.0
 20
0.0
 30
0.0
  0
INSERT
  5
271
330
1F
100
AcDbEntity
  8
Layer 1
100
AcDbBlockReference
  2
block 10
 10
0.0
 20
0.0
 30
0.0
  0
INSERT
  5
284
330
1F
100
AcDbEntity
  8
Layer 1
100
AcDbBlockReference
  2
block 12
 10
0.0
 20
0.0
 30
0.0
  0
MTEXT
  5
296
330
1F
100
AcDbEntity
  8
Layer 1
 62
     7
420
 16777215
100
AcDbMText
 10
529.8169283072159
 20
42.63834135261149
 30
0.0
 40
20.06802144782316
 41
0.0
 46
0.0
 71
     7
 72
     1
  1
\fMyriad Pro|b0|i0|c0|p34;\W1;750
 73
     1
 44
1.0
  0
MTEXT
  5
297
330
1F
100
AcDbEntity
  8
Layer 1
 62
     7
420
 16777215
100
AcDbMText
 10
490.5529382115089
 20
88.55626019277251
 30
0.0
 40
20.06802144782316
 41
0.0
 46
0.0
 71
     7
 72
     1
  1
\fMyriad Pro|b0|i0|c0|p34;\W1;35
 73
     1
 44
1.0
  0
MTEXT
  5
298
330
1F
100
AcDbEntity
  8
Layer 1
 62
     7
420
 16777215
100
AcDbMText
 10
314.7670702677167
 20
88.55694921186955
 30
0.0
 40
20.06802144782316
 41
0.0
 46
0.0
 71
     7
 72
     1
  1
\fMyriad Pro|b0|i0|c0|p34;\W1;300
 73
     1
 44
1.0
  0
POLYLINE
  5
299
330
1F
100
AcDbEntity
  8
Layer 1
 62
     7
420
 16777215
370
    20
100
AcDb2dPolyline
 66
     1
 10
0.0
 20
0.0
 30
0.0
  0
VERTEX
  5
29A
330
299
100
AcDbEntity
  8
Layer 1
 62
     7
420
 16777215
370
    20
100
AcDbVertex
100
AcDb2dVertex
 10
905.9360992768663
 20
117.9907971172354
 30
0.0
  0
VERTEX
  5
29B
330
299
100
AcDbEntity
  8
Layer 1
 62
     7
420
 16777215
370
    20
100
AcDbVertex
100
AcDb2dVertex
 10
905.9360992718784
 20
37.03966971674479
 30
0.0
  0
SEQEND
  5
29C
330
299
100
AcDbEntity
  8
Layer 1
 62
     7
420
 16777215
370
    20
  0
POLYLINE
  5
29D
330
1F
100
AcDbEntity
  8
Layer 1
 62
     7
420
 16777215
370
    20
100
AcDb2dPolyline
 66
     1
 10
0.0
 20
0.0
 30
0.0
  0
VERTEX
  5
29E
330
29D
100
AcDbEntity
  8
Layer 1
 62
     7
420
 16777215
370
    20
100
AcDbVertex
100
AcDb2dVertex
 10
156.0779796570456
 20
117.9907971172354
 30
0.0
  0
VERTEX
  5
29F
330
29D
100
AcDbEntity
  8
Layer 1
 62
     7
420
 16777215
370
    20
100
AcDbVertex
100
AcDb2dVertex
 10
156.0779796519543
 20
37.03966975433745
 30
0.0
  0
SEQEND
  5
2A0
330
29D
100
AcDbEntity
  8
Layer 1
 62
     7
420
 16777215
370
    20
  0
POLYLINE
  5
2A1
330
1F
100
AcDbEntity
  8
Layer 1
 62
     7
420
 16777215
370
    20
100
AcDb2dPolyline
 66
     1
 10
0.0
 20
0.0
 30
0.0
  0
VERTEX
  5
2A2
330
2A1
100
AcDbEntity
  8
Layer 1
 62
     7
420
 16777215
370
    20
100
AcDbVertex
100
AcDb2dVertex
 10
486.4805554464486
 20
117.9907971172354
 30
0.0
  0
VERTEX
  5
2A3
330
2A1
100
AcDbEntity
  8
Layer 1
 62
     7
420
 16777215
370
    20
100
AcDbVertex
100
AcDb2dVertex
 10
486.4805554412059
 20
80.12355446624152
 30
0.0
  0
SEQEND
  5
2A4
330
2A1
100
AcDbEntity
  8
Layer 1
 62
     7
420
 16777215
370
    20
  0
POLYLINE
  5
2A5
330
1F
100
AcDbEntity
  8
Layer 1
 62
     7
420
 16777215
370
    20
100
AcDb2dPolyline
 66
     1
 10
0.0
 20
0.0
 30
0.0
  0
VERTEX
  5
2A6
330
2A5
100
AcDbEntity
  8
Layer 1
 62
     7
420
 16777215
370
    20
100
AcDbVertex
100
AcDb2dVertex
 10
187.2571392516875
 20
117.9907971172354
 30
0.0
  0
VERTEX
  5
2A7
330
2A5
100
AcDbEntity
  8
Layer 1
 62
     7
420
 16777215
370
    20
100
AcDbVertex
100
AcDb2dVertex
 10
187.2571392464455
 20
80.12355448293789
 30
0.0
  0
SEQEND
  5
2A8
330
2A5
100
AcDbEntity
  8
Layer 1
 62
     7
420
 16777215
370
    20
  0
POLYLINE
  5
2A9
330
1F
100
AcDbEntity
  8
Layer 1
 62
     7
420
 16777215
370
    20
100
AcDb2dPolyline
 66
     1
 10
0.0
 20
0.0
 30
0.0
  0
VERTEX
  5
2AA
330
2A9
100
AcDbEntity
  8
Layer 1
 62
     7
420
 16777215
370
    20
100
AcDbVertex
100
AcDb2dVertex
 10
876.1743044562355
 20
117.9907971172354
 30
0.0
  0
VERTEX
  5
2AB
330
2A9
100
AcDbEntity
  8
Layer 1
 62
     7
420
 16777215
370
    20
100
AcDbVertex
100
AcDb2dVertex
 10
876.1743044514022
 20
83.52491993403284
 30
0.0
  0
SEQEND
  5
2AC
330
2A9
100
AcDbEntity
  8
Layer 1
 62
     7
420
 16777215
370
    20
  0
POLYLINE
  5
2AD
330
1F
100
AcDbEntity
  8
Layer 1
 62
     7
420
 16777215
370
    20
100
AcDb2dPolyline
 66
     1
 10
0.0
 20
0.0
 30
0.0
  0
VERTEX
  5
2AE
330
2AD
100
AcDbEntity
  8
Layer 1
 62
     7
420
 16777215
370
    20
100
AcDbVertex
100
AcDb2dVertex
 10
521.6279507325974
 20
117.9907971172354
 30
0.0
  0
VERTEX
  5
2AF
330
2AD
100
AcDbEntity
  8
Layer 1
 62
     7
420
 16777215
370
    20
100
AcDbVertex
100
AcDb2dVertex
 10
521.6279507274329
 20
83.5249199507292
 30
0.0
  0
SEQEND
  5
2B0
330
2AD
100
AcDbEntity
  8
Layer 1
 62
     7
420
 16777215
370
    20
  0
INSERT
  5
2B2
330
1F
100
AcDbEntity
  8
Layer 1
100
AcDbBlockReference
  2
block 14
 10
0.0
 20
0.0
 30
0.0
  0
INSERT
  5
2C5
330
1F
100
AcDbEntity
  8
Layer 1
100
AcDbBlockReference
  2
block 16
 10
0.0
 20
0.0
 30
0.0
  0
INSERT
  5
2D8
330
1F
100
AcDbEntity
  8
Layer 1
100
AcDbBlockReference
  2
block 18
 10
0.0
 20
0.0
 30
0.0
  0
INSERT
  5
2EB
330
1F
100
AcDbEntity
  8
Layer 1
100
AcDbBlockReference
  2
block 20
 10
0.0
 20
0.0
 30
0.0
  0
INSERT
  5
2FE
330
1F
100
AcDbEntity
  8
Layer 1
100
AcDbBlockReference
  2
block 22
 10
0.0
 20
0.0
 30
0.0
  0
INSERT
  5
311
330
1F
100
AcDbEntity
  8
Layer 1
100
AcDbBlockReference
  2
block 24
 10
0.0
 20
0.0
 30
0.0
  0
MTEXT
  5
323
330
1F
100
AcDbEntity
  8
Layer 1
 62
     7
420
 16777215
100
AcDbMText
 10
247.6850537846499
 20
226.5519781499965
 30
0.0
 40
20.06802144782316
 41
0.0
 46
0.0
 71
     7
 72
     1
  1
\fMyriad Pro|b0|i0|c0|p34;\W1;R18
 73
     1
 44
1.0
  0
INSERT
  5
325
330
1F
100
AcDbEntity
  8
Layer 1
100
AcDbBlockReference
  2
block 26
 10
0.0
 20
0.0
 30
0.0
  0
MTEXT
  5
338
330
1F
100
AcDbEntity
  8
Layer 1
 62
     7
420
 16777215
100
AcDbMText
 10
31.85524765913688
 20
-194.1455528939516
 30
0.0
 40
20.06802144782316
 41
0.0
 46
0.0
 71
     7
 72
     1
  1
\fMyriad Pro|b0|i0|c0|p34;\W1;200
 11
6.123233995736766E-17
 21
1.0
 31
0.0
 73
     1
 44
1.0
  0
MTEXT
  5
339
330
1F
100
AcDbEntity
  8
Layer 1
 62
     7
420
 16777215
100
AcDbMText
 10
122.1574014994086
 20
-135.0186548425305
 30
0.0
 40
20.06802144782316
 41
0.0
 46
0.0
 71
     7
 72
     1
  1
\fMyriad Pro|b0|i0|c0|p34;\W1;13
 73
     1
 44
1.0
  0
POLYLINE
  5
33A
330
1F
100
AcDbEntity
  8
Layer 1
 62
     7
420
 16777215
370
    20
100
AcDb2dPolyline
 66
     1
 10
0.0
 20
0.0
 30
0.0
  0
VERTEX
  5
33B
330
33A
100
AcDbEntity
  8
Layer 1
 62
     7
420
 16777215
370
    20
100
AcDbVertex
100
AcDb2dVertex
 10
142.4108983395949
 20
-67.1741833599652
 30
0.0
  0
VERTEX
  5
33C
330
33A
100
AcDbEntity
  8
Layer 1
 62
     7
420
 16777215
370
    20
100
AcDbVertex
100
AcDb2dVertex
 10
16.04521996373398
 20
-67.17418337874965
 30
0.0
  0
SEQEND
  5
33D
330
33A
100
AcDbEntity
  8
Layer 1
 62
     7
420
 16777215
370
    20
  0
POLYLINE
  5
33E
330
1F
100
AcDbEntity
  8
Layer 1
 62
     7
420
 16777215
370
    20
100
AcDb2dPolyline
 66
     1
 10
0.0
 20
0.0
 30
0.0
  0
VERTEX
  5
33F
330
33E
100
AcDbEntity
  8
Layer 1
 62
     7
420
 16777215
370
    20
100
AcDbVertex
100
AcDb2dVertex
 10
142.4108983395949
 20
-265.5868695813457
 30
0.0
  0
VERTEX
  5
340
330
33E
100
AcDbEntity
  8
Layer 1
 62
     7
420
 16777215
370
    20
100
AcDbVertex
100
AcDb2dVertex
 10
16.04521999198574
 20
-265.5868695978399
 30
0.0
  0
SEQEND
  5
341
330
33E
100
AcDbEntity
  8
Layer 1
 62
     7
420
 16777215
370
    20
  0
INSERT
  5
343
330
1F
100
AcDbEntity
  8
Layer 1
100
AcDbBlockReference
  2
block 28
 10
0.0
 20
0.0
 30
0.0
  0
INSERT
  5
356
330
1F
100
AcDbEntity
  8
Layer 1
100
AcDbBlockReference
  2
block 30
 10
0.0
 20
0.0
 30
0.0
  0
INSERT
  5
369
330
1F
100
AcDbEntity
  8
Layer 1
100
AcDbBlockReference
  2
block 32
 10
0.0
 20
0.0
 30
0.0
  0
INSERT
  5
36E
330
1F
100
AcDbEntity
  8
Layer 1
100
AcDbBlockReference
  2
block 33
 10
0.0
 20
0.0
 30
0.0
  0
INSERT
  5
373
330
1F
100
AcDbEntity
  8
Layer 1
100
AcDbBlockReference
  2
block 34
 10
0.0
 20
0.0
 30
0.0
  0
INSERT
  5
379
330
1F
100
AcDbEntity
  8
Layer 1
100
AcDbBlockReference
  2
block 35
 10
0.0
 20
0.0
 30
0.0
  0
INSERT
  5
37E
330
1F
100
AcDbEntity
  8
Layer 1
100
AcDbBlockReference
  2
block 36
 10
0.0
 20
0.0
 30
0.0
  0
INSERT
  5
383
330
1F
100
AcDbEntity
  8
Layer 1
100
AcDbBlockReference
  2
block 37
 10
0.0
 20
0.0
 30
0.0
  0
INSERT
  5
388
330
1F
100
AcDbEntity
  8
Layer 1
100
AcDbBlockReference
  2
block 38
 10
0.0
 20
0.0
 30
0.0
  0
INSERT
  5
38D
330
1F
100
AcDbEntity
  8
Layer 1
100
AcDbBlockReference
  2
block 39
 10
0.0
 20
0.0
 30
0.0
  0
INSERT
  5
392
330
1F
100
AcDbEntity
  8
Layer 1
100
AcDbBlockReference
  2
block 40
 10
0.0
 20
0.0
 30
0.0
  0
INSERT
  5
397
330
1F
100
AcDbEntity
  8
Layer 1
100
AcDbBlockReference
  2
block 41
 10
0.0
 20
0.0
 30
0.0
  0
INSERT
  5
39C
330
1F
100
AcDbEntity
  8
Layer 1
100
AcDbBlockReference
  2
block 42
 10
0.0
 20
0.0
 30
0.0
  0
INSERT
  5
3A8
330
1F
100
AcDbEntity
  8
Layer 1
100
AcDbBlockReference
  2
block 43
 10
0.0
 20
0.0
 30
0.0
  0
INSERT
  5
3AD
330
1F
100
AcDbEntity
  8
Layer 1
100
AcDbBlockReference
  2
block 44
 10
0.0
 20
0.0
 30
0.0
  0
INSERT
  5
3B2
330
1F
100
AcDbEntity
  8
Layer 1
100
AcDbBlockReference
  2
block 45
 10
0.0
 20
0.0
 30
0.0
  0
INSERT
  5
3B7
330
1F
100
AcDbEntity
  8
Layer 1
100
AcDbBlockReference
  2
block 46
 10
0.0
 20
0.0
 30
0.0
  0
INSERT
  5
3BC
330
1F
100
AcDbEntity
  8
Layer 1
100
AcDbBlockReference
  2
block 47
 10
0.0
 20
0.0
 30
0.0
  0
ENDSEC
  0
SECTION
  2
OBJECTS
  0
DICTIONARY
  5
C
330
0
100
AcDbDictionary
281
     1
  3
ACAD_GROUP
350
D
  3
ACAD_LAYOUT
350
1A
  3
ACAD_MATERIAL
350
3B
  3
ACAD_MLEADERSTYLE
350
3C5
  3
ACAD_MLINESTYLE
350
17
  3
ACAD_PLOTSETTINGS
350
19
  3
ACAD_PLOTSTYLENAME
350
E
  3
ACAD_TABLESTYLE
350
3C4
  3
ACAD_VISUALSTYLE
350
2A
  0
SUN
  5
3F
330
29
100
AcDbSun
 90
        1
290
     0
 63
     7
421
 16777215
 40
1.0
291
     1
 91
  2455826
 92
 54000000
292
     0
 70
     2
 71
   256
280
     1
  0
DICTIONARY
  5
D
102
{ACAD_REACTORS
330
C
102
}
330
C
100
AcDbDictionary
281
     1
  0
DICTIONARY
  5
1A
102
{ACAD_REACTORS
330
C
102
}
330
C
100
AcDbDictionary
281
     1
  3
Layout1
350
1E
  3
Layout2
350
26
  3
Model
350
22
  0
DICTIONARY
  5
3B
102
{ACAD_REACTORS
330
C
102
}
330
C
100
AcDbDictionary
281
     1
  3
ByBlock
350
3D
  3
ByLayer
350
3C
  3
Global
350
3E
  0
DICTIONARY
  5
3C5
102
{ACAD_REACTORS
330
C
102
}
330
C
100
AcDbDictionary
281
     1
  0
DICTIONARY
  5
17
102
{ACAD_REACTORS
330
C
102
}
330
C
100
AcDbDictionary
281
     1
  3
Standard
350
18
  0
DICTIONARY
  5
19
102
{ACAD_REACTORS
330
C
102
}
330
C
100
AcDbDictionary
281
     1
  0
ACDBDICTIONARYWDFLT
  5
E
102
{ACAD_REACTORS
330
C
102
}
330
C
100
AcDbDictionary
281
     1
  3
Normal
350
F
100
AcDbDictionaryWithDefault
340
F
  0
DICTIONARY
  5
3C4
102
{ACAD_REACTORS
330
C
102
}
330
C
100
AcDbDictionary
281
     1
  0
DICTIONARY
  5
2A
102
{ACAD_REACTORS
330
C
102
}
330
C
100
AcDbDictionary
281
     1
  3
2dWireframe
350
2F
  3
3D Hidden
350
31
  3
3dWireframe
350
30
  3
Basic
350
32
  3
Brighten
350
36
  3
ColorChange
350
3A
  3
Conceptual
350
34
  3
Dim
350
35
  3
Facepattern
350
39
  3
Flat
350
2B
  3
FlatWithEdges
350
2C
  3
Gouraud
350
2D
  3
GouraudWithEdges
350
2E
  3
Linepattern
350
38
  3
Realistic
350
33
  3
Thicken
350
37
  0
LAYOUT
  5
1E
102
{ACAD_REACTORS
330
1A
102
}
330
1A
100
AcDbPlotSettings
  1

  2
none_device
  4

  6

 40
0.0
 41
0.0
 42
0.0
 43
0.0
 44
0.0
 45
0.0
 46
0.0
 47
0.0
 48
0.0
 49
0.0
140
0.0
141
0.0
142
1.0
143
1.0
 70
   688
 72
     0
 73
     0
 74
     5
  7

 75
    16
 76
     0
 77
     2
 78
   300
147
1.0
148
0.0
149
0.0
100
AcDbLayout
  1
Layout1
 70
     1
 71
     1
 10
0.0
 20
0.0
 11
12.0
 21
9.0
 12
0.0
 22
0.0
 32
0.0
 14
1.000000000000000E+20
 24
1.000000000000000E+20
 34
1.000000000000000E+20
 15
-1.000000000000000E+20
 25
-1.000000000000000E+20
 35
-1.000000000000000E+20
146
0.0
 13
0.0
 23
0.0
 33
0.0
 16
1.0
 26
0.0
 36
0.0
 17
0.0
 27
1.0
 37
0.0
 76
     0
330
1B
  0
LAYOUT
  5
26
102
{ACAD_REACTORS
330
1A
102
}
330
1A
100
AcDbPlotSettings
  1

  2
none_device
  4

  6

 40
0.0
 41
0.0
 42
0.0
 43
0.0
 44
0.0
 45
0.0
 46
0.0
 47
0.0
 48
0.0
 49
0.0
140
0.0
141
0.0
142
1.0
143
1.0
 70
   688
 72
     0
 73
     0
 74
     5
  7

 75
    16
 76
     0
 77
     2
 78
   300
147
1.0
148
0.0
149
0.0
100
AcDbLayout
  1
Layout2
 70
     1
 71
     2
 10
0.0
 20
0.0
 11
0.0
 21
0.0
 12
0.0
 22
0.0
 32
0.0
 14
0.0
 24
0.0
 34
0.0
 15
0.0
 25
0.0
 35
0.0
146
0.0
 13
0.0
 23
0.0
 33
0.0
 16
1.0
 26
0.0
 36
0.0
 17
0.0
 27
1.0
 37
0.0
 76
     0
330
23
  0
LAYOUT
  5
22
102
{ACAD_REACTORS
330
1A
102
}
330
1A
100
AcDbPlotSettings
  1

  2
none_device
  4

  6

 40
0.0
 41
0.0
 42
0.0
 43
0.0
 44
0.0
 45
0.0
 46
0.0
 47
0.0
 48
0.0
 49
0.0
140
0.0
141
0.0
142
1.0
143
1.0
 70
  1712
 72
     0
 73
     0
 74
     0
  7

 75
     0
 76
     0
 77
     2
 78
   300
147
1.0
148
0.0
149
0.0
100
AcDbLayout
  1
Model
 70
     1
 71
     0
 10
0.0
 20
0.0
 11
12.0
 21
9.0
 12
0.0
 22
0.0
 32
0.0
 14
1.000000000000000E+20
 24
1.000000000000000E+20
 34
1.000000000000000E+20
 15
-1.000000000000000E+20
 25
-1.000000000000000E+20
 35
-1.000000000000000E+20
146
0.0
 13
0.0
 23
0.0
 33
0.0
 16
1.0
 26
0.0
 36
0.0
 17
0.0
 27
1.0
 37
0.0
 76
     0
330
1F
331
29
  0
MATERIAL
  5
3D
102
{ACAD_REACTORS
330
3B
102
}
330
3B
100
AcDbMaterial
  1
ByBlock
 72
     1
 94
      127
  0
MATERIAL
  5
3C
102
{ACAD_REACTORS
330
3B
102
}
330
3B
100
AcDbMaterial
  1
ByLayer
 72
     1
 94
      127
  0
MATERIAL
  5
3E
102
{ACAD_REACTORS
330
3B
102
}
330
3B
100
AcDbMaterial
  1
Global
 72
     1
 94
      127
  0
MLINESTYLE
  5
18
102
{ACAD_REACTORS
330
17
102
}
330
17
100
AcDbMlineStyle
  2
Standard
 70
     0
  3

 62
   256
 51
90.0
 52
90.0
 71
     2
 49
0.5
 62
   256
  6
BYLAYER
 49
-0.5
 62
   256
  6
BYLAYER
  0
ACDBPLACEHOLDER
  5
F
102
{ACAD_REACTORS
330
E
102
}
330
E
  0
VISUALSTYLE
  5
2F
102
{ACAD_REACTORS
330
2A
102
}
330
2A
100
AcDbVisualStyle
  2
2dWireframe
 70
     4
177
     2
291
     0
 71
     0
176
     1
 72
     2
176
     1
 73
     0
176
     1
 90
        0
176
     1
 40
-0.6
176
     1
 41
-30.0
176
     1
 62
     5
 63
     7
421
 16777215
176
     1
 74
     1
176
     1
 91
        4
176
     1
 64
     7
176
     1
 65
   257
176
     1
 75
     1
176
     1
175
     1
176
     1
 42
1.0
176
     1
 92
        0
176
     1
 66
   257
176
     1
 43
1.0
176
     1
 76
     1
176
     1
 77
     6
176
     1
 78
     2
176
     1
 67
     7
176
     1
 79
     5
176
     1
170
     0
176
     1
171
     0
176
     1
290
     0
176
     1
 93
        1
176
     1
 44
0.0
176
     1
173
     0
176
     1
  0
VISUALSTYLE
  5
31
102
{ACAD_REACTORS
330
2A
102
}
330
2A
100
AcDbVisualStyle
  2
3D Hidden
 70
     6
177
     2
291
     0
 71
     1
176
     1
 72
     2
176
     1
 73
     2
176
     1
 90
        0
176
     1
 40
-0.6
176
     1
 41
-30.0
176
     1
 62
     5
 63
     7
421
 16777215
176
     1
 74
     2
176
     1
 91
        2
176
     1
 64
     7
176
     1
 65
   257
176
     1
 75
     2
176
     1
175
     1
176
     1
 42
40.0
176
     1
 92
        0
176
     1
 66
   257
176
     1
 43
1.0
176
     1
 76
     1
176
     1
 77
     6
176
     1
 78
     2
176
     1
 67
     7
176
     1
 79
     3
176
     1
170
     0
176
     1
171
     0
176
     1
290
     0
176
     1
 93
        1
176
     1
 44
0.0
176
     1
173
     0
176
     1
  0
VISUALSTYLE
  5
30
102
{ACAD_REACTORS
330
2A
102
}
330
2A
100
AcDbVisualStyle
  2
3dWireframe
 70
     5
177
     2
291
     0
 71
     0
176
     1
 72
     2
176
     1
 73
     0
176
     1
 90
        0
176
     1
 40
-0.6
176
     1
 41
-30.0
176
     1
 62
     5
 63
     7
421
 16777215
176
     1
 74
     1
176
     1
 91
        4
176
     1
 64
     7
176
     1
 65
   257
176
     1
 75
     1
176
     1
175
     1
176
     1
 42
1.0
176
     1
 92
        0
176
     1
 66
   257
176
     1
 43
1.0
176
     1
 76
     1
176
     1
 77
     6
176
     1
 78
     2
176
     1
 67
     7
176
     1
 79
     5
176
     1
170
     0
176
     1
171
     0
176
     1
290
     0
176
     1
 93
        1
176
     1
 44
0.0
176
     1
173
     0
176
     1
  0
VISUALSTYLE
  5
32
102
{ACAD_REACTORS
330
2A
102
}
330
2A
100
AcDbVisualStyle
  2
Basic
 70
     7
177
     2
291
     1
 71
     1
176
     1
 72
     0
176
     1
 73
     1
176
     1
 90
        0
176
     1
 40
-0.6
176
     1
 41
-30.0
176
     1
 62
     5
 63
     7
421
 16777215
176
     1
 74
     0
176
     1
 91
        4
176
     1
 64
     7
176
     1
 65
   257
176
     1
 75
     1
176
     1
175
     1
176
     1
 42
1.0
176
     1
 92
        8
176
     1
 66
     7
176
     1
 43
1.0
176
     1
 76
     1
176
     1
 77
     6
176
     1
 78
     2
176
     1
 67
     7
176
     1
 79
     5
176
     1
170
     0
176
     1
171
     0
176
     1
290
     0
176
     1
 93
        1
176
     1
 44
0.0
176
     1
173
     0
176
     1
  0
VISUALSTYLE
  5
36
102
{ACAD_REACTORS
330
2A
102
}
330
2A
100
AcDbVisualStyle
  2
Brighten
 70
    12
177
     2
291
     1
 71
     2
176
     1
 72
     2
176
     1
 73
     0
176
     1
 90
        0
176
     1
 40
-0.6
176
     1
 41
-30.0
176
     1
 62
     5
 63
     7
421
 16777215
176
     1
 74
     1
176
     1
 91
        4
176
     1
 64
     7
176
     1
 65
   257
176
     1
 75
     1
176
     1
175
     1
176
     1
 42
1.0
176
     1
 92
        8
176
     1
 66
     7
176
     1
 43
1.0
176
     1
 76
     1
176
     1
 77
     6
176
     1
 78
     2
176
     1
 67
     7
176
     1
 79
     5
176
     1
170
     0
176
     1
171
     0
176
     1
290
     0
176
     1
 93
        1
176
     1
 44
50.0
176
     1
173
     0
176
     1
  0
VISUALSTYLE
  5
3A
102
{ACAD_REACTORS
330
2A
102
}
330
2A
100
AcDbVisualStyle
  2
ColorChange
 70
    16
177
     2
291
     1
 71
     2
176
     1
 72
     2
176
     1
 73
     3
176
     1
 90
        0
176
     1
 40
-0.6
176
     1
 41
-30.0
176
     1
 62
     5
 63
     8
421
  8421504
176
     1
 74
     1
176
     1
 91
        4
176
     1
 64
     7
176
     1
 65
   257
176
     1
 75
     1
176
     1
175
     1
176
     1
 42
1.0
176
     1
 92
        8
176
     1
 66
     8
424
  8421504
176
     1
 43
1.0
176
     1
 76
     1
176
     1
 77
     6
176
     1
 78
     2
176
     1
 67
     7
176
     1
 79
     5
176
     1
170
     0
176
     1
171
     0
176
     1
290
     0
176
     1
 93
        1
176
     1
 44
0.0
176
     1
173
     0
176
     1
  0
VISUALSTYLE
  5
34
102
{ACAD_REACTORS
330
2A
102
}
330
2A
100
AcDbVisualStyle
  2
Conceptual
 70
     9
177
     2
291
     0
 71
     3
176
     1
 72
     2
176
     1
 73
     0
176
     1
 90
        0
176
     1
 40
-0.6
176
     1
 41
-30.0
176
     1
 62
     5
 63
     7
421
 16777215
176
     1
 74
     2
176
     1
 91
        2
176
     1
 64
     7
176
     1
 65
   257
176
     1
 75
     1
176
     1
175
     1
176
     1
 42
40.0
176
     1
 92
        8
176
     1
 66
     7
176
     1
 43
1.0
176
     1
 76
     1
176
     1
 77
     6
176
     1
 78
     2
176
     1
 67
     7
176
     1
 79
     3
176
     1
170
     0
176
     1
171
     0
176
     1
290
     0
176
     1
 93
        1
176
     1
 44
0.0
176
     1
173
     0
176
     1
  0
VISUALSTYLE
  5
35
102
{ACAD_REACTORS
330
2A
102
}
330
2A
100
AcDbVisualStyle
  2
Dim
 70
    11
177
     2
291
     1
 71
     2
176
     1
 72
     2
176
     1
 73
     0
176
     1
 90
        0
176
     1
 40
-0.6
176
     1
 41
-30.0
176
     1
 62
     5
 63
     7
421
 16777215
176
     1
 74
     1
176
     1
 91
        4
176
     1
 64
     7
176
     1
 65
   257
176
     1
 75
     1
176
     1
175
     1
176
     1
 42
1.0
176
     1
 92
        8
176
     1
 66
     7
176
     1
 43
1.0
176
     1
 76
     1
176
     1
 77
     6
176
     1
 78
     2
176
     1
 67
     7
176
     1
 79
     5
176
     1
170
     0
176
     1
171
     0
176
     1
290
     0
176
     1
 93
        1
176
     1
 44
-50.0
176
     1
173
     0
176
     1
  0
VISUALSTYLE
  5
39
102
{ACAD_REACTORS
330
2A
102
}
330
2A
100
AcDbVisualStyle
  2
Facepattern
 70
    15
177
     2
291
     1
 71
     2
176
     1
 72
     2
176
     1
 73
     0
176
     1
 90
        0
176
     1
 40
-0.6
176
     1
 41
-30.0
176
     1
 62
     5
 63
     7
421
 16777215
176
     1
 74
     1
176
     1
 91
        4
176
     1
 64
     7
176
     1
 65
   257
176
     1
 75
     1
176
     1
175
     1
176
     1
 42
1.0
176
     1
 92
        8
176
     1
 66
     7
176
     1
 43
1.0
176
     1
 76
     1
176
     1
 77
     6
176
     1
 78
     2
176
     1
 67
     7
176
     1
 79
     5
176
     1
170
     0
176
     1
171
     0
176
     1
290
     0
176
     1
 93
        1
176
     1
 44
0.0
176
     1
173
     0
176
     1
  0
VISUALSTYLE
  5
2B
102
{ACAD_REACTORS
330
2A
102
}
330
2A
100
AcDbVisualStyle
  2
Flat
 70
     0
177
     2
291
     1
 71
     2
176
     1
 72
     1
176
     1
 73
     1
176
     1
 90
        2
176
     1
 40
-0.6
176
     1
 41
30.0
176
     1
 62
     5
 63
     7
421
 16777215
176
     1
 74
     0
176
     1
 91
        4
176
     1
 64
     7
176
     1
 65
   257
176
     1
 75
     1
176
     1
175
     1
176
     1
 42
1.0
176
     1
 92
        8
176
     1
 66
     7
176
     1
 43
1.0
176
     1
 76
     1
176
     1
 77
     6
176
     1
 78
     2
176
     1
 67
     7
176
     1
 79
     5
176
     1
170
     0
176
     1
171
     0
176
     1
290
     0
176
     1
 93
       13
176
     1
 44
0.0
176
     1
173
     0
176
     1
  0
VISUALSTYLE
  5
2C
102
{ACAD_REACTORS
330
2A
102
}
330
2A
100
AcDbVisualStyle
  2
FlatWithEdges
 70
     1
177
     2
291
     1
 71
     2
176
     1
 72
     1
176
     1
 73
     1
176
     1
 90
        2
176
     1
 40
-0.6
176
     1
 41
30.0
176
     1
 62
     5
 63
     7
421
 16777215
176
     1
 74
     1
176
     1
 91
        4
176
     1
 64
     7
176
     1
 65
   257
176
     1
 75
     1
176
     1
175
     1
176
     1
 42
1.0
176
     1
 92
        0
176
     1
 66
   257
176
     1
 43
1.0
176
     1
 76
     1
176
     1
 77
     6
176
     1
 78
     2
176
     1
 67
     7
176
     1
 79
     5
176
     1
170
     0
176
     1
171
     0
176
     1
290
     0
176
     1
 93
       13
176
     1
 44
0.0
176
     1
173
     0
176
     1
  0
VISUALSTYLE
  5
2D
102
{ACAD_REACTORS
330
2A
102
}
330
2A
100
AcDbVisualStyle
  2
Gouraud
 70
     2
177
     2
291
     1
 71
     2
176
     1
 72
     2
176
     1
 73
     1
176
     1
 90
        2
176
     1
 40
-0.6
176
     1
 41
30.0
176
     1
 62
     5
 63
     7
421
 16777215
176
     1
 74
     0
176
     1
 91
        4
176
     1
 64
     7
176
     1
 65
   257
176
     1
 75
     1
176
     1
175
     1
176
     1
 42
1.0
176
     1
 92
        0
176
     1
 66
     7
176
     1
 43
1.0
176
     1
 76
     1
176
     1
 77
     6
176
     1
 78
     2
176
     1
 67
     7
176
     1
 79
     5
176
     1
170
     0
176
     1
171
     0
176
     1
290
     0
176
     1
 93
       13
176
     1
 44
0.0
176
     1
173
     0
176
     1
  0
VISUALSTYLE
  5
2E
102
{ACAD_REACTORS
330
2A
102
}
330
2A
100
AcDbVisualStyle
  2
GouraudWithEdges
 70
     3
177
     2
291
     1
 71
     2
176
     1
 72
     2
176
     1
 73
     1
176
     1
 90
        2
176
     1
 40
-0.6
176
     1
 41
30.0
176
     1
 62
     5
 63
     7
421
 16777215
176
     1
 74
     1
176
     1
 91
        4
176
     1
 64
     7
176
     1
 65
   257
176
     1
 75
     1
176
     1
175
     1
176
     1
 42
1.0
176
     1
 92
        0
176
     1
 66
   257
176
     1
 43
1.0
176
     1
 76
     1
176
     1
 77
     6
176
     1
 78
     2
176
     1
 67
     7
176
     1
 79
     5
176
     1
170
     0
176
     1
171
     0
176
     1
290
     0
176
     1
 93
       13
176
     1
 44
0.0
176
     1
173
     0
176
     1
  0
VISUALSTYLE
  5
38
102
{ACAD_REACTORS
330
2A
102
}
330
2A
100
AcDbVisualStyle
  2
Linepattern
 70
    14
177
     2
291
     1
 71
     2
176
     1
 72
     2
176
     1
 73
     0
176
     1
 90
        0
176
     1
 40
-0.6
176
     1
 41
-30.0
176
     1
 62
     5
 63
     7
421
 16777215
176
     1
 74
     1
176
     1
 91
        4
176
     1
 64
     7
176
     1
 65
   257
176
     1
 75
     7
176
     1
175
     7
176
     1
 42
1.0
176
     1
 92
        8
176
     1
 66
     7
176
     1
 43
1.0
176
     1
 76
     1
176
     1
 77
     6
176
     1
 78
     2
176
     1
 67
     7
176
     1
 79
     5
176
     1
170
     0
176
     1
171
     0
176
     1
290
     0
176
     1
 93
        1
176
     1
 44
0.0
176
     1
173
     0
176
     1
  0
VISUALSTYLE
  5
33
102
{ACAD_REACTORS
330
2A
102
}
330
2A
100
AcDbVisualStyle
  2
Realistic
 70
     8
177
     2
291
     0
 71
     2
176
     1
 72
     2
176
     1
 73
     0
176
     1
 90
        0
176
     1
 40
-0.6
176
     1
 41
-30.0
176
     1
 62
     5
 63
     7
421
 16777215
176
     1
 74
     1
176
     1
 91
        0
176
     1
 64
     7
176
     1
 65
   257
176
     1
 75
     1
176
     1
175
     1
176
     1
 42
1.0
176
     1
 92
        8
176
     1
 66
     8
424
  7895160
176
     1
 43
1.0
176
     1
 76
     1
176
     1
 77
     6
176
     1
 78
     2
176
     1
 67
     7
176
     1
 79
     5
176
     1
170
     0
176
     1
171
     0
176
     1
290
     0
176
     1
 93
       13
176
     1
 44
0.0
176
     1
173
     0
176
     1
  0
VISUALSTYLE
  5
37
102
{ACAD_REACTORS
330
2A
102
}
330
2A
100
AcDbVisualStyle
  2
Thicken
 70
    13
177
     2
291
     1
 71
     2
176
     1
 72
     2
176
     1
 73
     0
176
     1
 90
        0
176
     1
 40
-0.6
176
     1
 41
-30.0
176
     1
 62
     5
 63
     7
421
 16777215
176
     1
 74
     1
176
     1
 91
        4
176
     1
 64
     7
176
     1
 65
   257
176
     1
 75
     1
176
     1
175
     1
176
     1
 42
1.0
176
     1
 92
       12
176
     1
 66
     7
176
     1
 43
1.0
176
     1
 76
     1
176
     1
 77
     6
176
     1
 78
     2
176
     1
 67
     7
176
     1
 79
     5
176
     1
170
     0
176
     1
171
     0
176
     1
290
     0
176
     1
 93
        1
176
     1
 44
0.0
176
     1
173
     0
176
     1
  0
ENDSEC
  0
EOF
